5ちゃんねる ★スマホ版★ ■掲示板に戻る■ 全部 1- 最新50  

■ このスレッドは過去ログ倉庫に格納されています

ピロウズを耳コピするスレ

1 :壁に耳あり、障子にメアリーさん:03/03/09 01:31
the pillowsの耳コピ-について語りましょう。
何でも情報提供求む!

関連スレ
http://www.geocities.co.jp/Bookend-Hemingway/3991/pillows.html

2 :1:03/03/09 01:38
こんなのも見つけたんで、参考までに・・・

◆?耳コピ◆
http://music2.2ch.net/test/read.cgi/compose/1028812953/
耳コピしたいけどできない、自信がない人ためのスレ
http://music.2ch.net/compose/kako/1012/10129/1012995529.html
耳コピに役立つハード
http://music.2ch.net/compose/kako/1014/10143/1014392114.html
おまえら!どうやって耳コピしてますか?
http://music.2ch.net/compose/kako/1015/10153/1015301039.html


3 :壁に耳あり、障子にメアリーさん:03/03/09 01:38
>>1
スレ立ておつかれちゃん

4 :壁に耳あり、障子にメアリーさん:03/03/09 01:41
>>1
お疲れちゃん
あまり情報提供とか出来ないけど
がんばってー

5 :壁に耳あり、障子にメアリーさん:03/03/09 01:43
お疲れちゃん!
あっちの196です
情報が役に立ってよかったです 応援しているので頑張って下さいね

6 :たこやき:03/03/09 02:07
さっそく!まずタイニーボートいくか
1| ____0_4_0______
2| __0_______2_35_
3| 12_2_2_2_2_2___
4| _______________
5| _______________
6| _______________


こんなんでどうよ?

7 :たこやき:03/03/09 02:09
うぎゃ、ずれた・・・どうかけばいんだろ・・・


8 :たこやき:03/03/09 02:10
上のやつ、コピペしてメモ帳かなんかでみるとちゃんと見れると思う

9 :壁に耳あり、障子にメアリーさん:03/03/09 02:13
このスレ何?

10 :壁に耳あり、障子にメアリーさん:03/03/09 02:14
誰かテンプレ作ってくれると助かるよね

11 :壁に耳あり、障子にメアリーさん:03/03/09 02:21
なんだなんだ??

12 :壁に耳あり、障子にメアリーさん:03/03/09 06:29
http://euleca.com/pc/bbs_viw.phpbbsid=5&sid=615
http://www.forest.impress.co.jp/article/2000/02/28/powertabeditor.html
http://www.vector.co.jp/soft/win95/art/se179395.html?site=n

textデータとしては出来ないみたいだけど・・・こんなのもあった、ということで

13 :壁に耳あり、障子にメアリーさん:03/03/09 06:31
あっはっは・・・h抜くの忘れた・・・
そしてなんか一つ目のURLのハテナが抜けてる・・・
ttp://euleca.com/pc/bbs_viw.php?bbsid=5&sid=615

申し訳ない・・・

14 :壁に耳あり、障子にメアリーさん:03/03/09 06:33
下げ忘れたし・・・
さらによおくみたらどっかの掲示板だこれ・・・まぁいいか?
逝ってきます・・・

15 :壁に耳あり、障子にメアリーさん:03/03/09 08:16
kakikomeneeyo baka

16 :壁に耳あり、障子にメアリーさん:03/03/09 08:20
ピロウズて…どっかからの避難ですか?

いいバンドだと思います まあガンガレ

17 :壁に耳あり、障子にメアリーさん:03/03/09 09:27
>>16
邦楽板からやってまいりました。あっちだと微妙に板違いなんで。よろしく。

18 :?C?E´?¨??e`?A?a´?q?E´???A???[?3?n:03/03/09 10:44
ところで、Peeちゃんがストラトから
あえてムスタングに変えた理由知ってる人いない?
チャー好きだとか・・・なわけないか。逝ってきます

19 :壁に耳あり、障子にメアリーさん:03/03/09 11:39
自分でダイナソーのリフ希望したんだけど・・・
いままではこうやって弾いてたんだけどあってる?
4| __3_1_3___3_1_3|__2_0_2___2_0_2|__3_1_3___3_1_3|__2_0_20_02_0_2
5| 3______3_3_____|3______3_3_____|3______3_3_____|3______________

たぶんずれるはずです・・・メモ帳・・・

20 :なるこむ:03/03/09 11:55
なぜムスタングか、ってのはわからないけど
今のサウンドではストラトは上品過ぎるからでないの?

関係ないけどチャーかっこいいね

21 :壁に耳あり、障子にメアリーさん :03/03/09 12:44
ムスタングといえばどうしても「気絶するほど悩ましい」のイメージが・・・
最近はチャーもストラトばっかだけど。

22 :たこやき:03/03/09 16:31
>19
音程がずれてんじゃない?
ラ〜ミ〜レ〜ミラ〜ミ〜レ〜ミ〜
ソ〜ミ〜レ〜ミソ〜ミ〜レ〜ミ〜ってきこえる。

でピーちゃんのライブみると1、2フレットあたりでひいてるのね
だからよそうは・・・

23 :たこやき:03/03/09 16:33
3| -------------0----
4| -202-202--202-202-
5| 0---0-------------
6| ---------2--------

だと思うけど・・
どう?だれかやってみて。

24 :たこやき:03/03/09 17:01
オクターブちがうか・・じゃあこれ
1| -0-0-0-0|-0-0-0-0--
2| --3---3-|--3---3---
3| 2---2---|0---0-----

これでどうよ??

25 :19:03/03/09 18:03
あ、なんか良い感じです。
音感が羨ましい・・・

26 :壁に耳あり、障子にメアリーさん :03/03/10 00:08
改造なしのムスタングってあんまり良い評判聞かないけど、どうですか?

27 :壁に耳あり、障子にメアリーさん:03/03/11 00:43
ここにはギタリストしかいない?

28 :たこやき:03/03/11 01:34
どうだろ、おれは一応ピアノもひけるけど



29 : ◆C/gnZkkCZ6 :03/03/11 08:29
ダイナソーの弾き方
俺の考えでは1・2・3フレのみ使用で

『FM7(ただし2&3&4弦のみ抑え他は開放)⇒Cを弾きながら小指は2弦3フレ』を抑える。
この2つのコードでアップ&ダウンのストロークをする。
アップの時は狙うように開放1弦を弾く。

これどお?

30 :なるこむ:03/03/11 10:09
>>27俺はギターはあんまり弾けない。ベースならそこそこ弾けるけど

31 :壁に耳あり、障子にメアリーさん:03/03/11 14:47
>>27
ちょっとハープも齧ってたり・・・
けど基本的にギターのみ。お粗末なもんですけど。

32 :壁に耳あり、障子にメアリーさん:03/03/13 23:55
Ride on〜のイントロ、
タカターンターンターンの後のジャカジャージャ×2ってどう弾いているか分かりますか?
タカターンは4弦12f、6弦5f、5弦7〜9スライドってのは分かるんですけど・・・。
ベースはAの音弾いてるみたいだから、ハイポジAでやってみたんですけど
いまいち合わないっぽくって。


33 : ◆C/gnZkkCZ6 :03/03/14 10:18
>>32
さわお・・・中指6弦5f、人指し指5弦4f、薬指4弦5f、小指3弦5f
Pちゃん・・中指4弦7f、人指し指3弦6f、小指2&1弦8f

てなカンジ。わかりずらい? 

34 :壁に耳あり、障子にメアリーさん:03/03/14 15:15
ストカメの耳コピ始めようかと思ってます。
イントロのGはDのフォームで7fあたりとそこから2fほど下がったところを
人さし指で押さえるやり方で合ってる?
ビデオとか見ると何か違うような・・・

35 :壁に耳あり、障子にメアリーさん:03/03/14 19:47
>>33
32じゃないけど、サンクス!
A7♯9ってものすごく弾き辛そうでどうしようかと思ってたんだよ。
やっとわかったよ。6弦、5弦省略すれば良かったんだね!


36 : ◆C/gnZkkCZ6 :03/03/14 21:55
>>34
当方、ストカメはコピーしてないんだけど
映像で見る限りたぶんその音は
7fでGの音の後は
⇒人差し指を3fで1&2&3弦を抑えながら中指3弦4f
⇒スライドさせて人差し指1&2弦5f(3弦も含むかも?)

ってなカンジだと思うんだけど・・・
最近、ライブでやってくれないから弾き方わかんないんだよなー
スマソ( ´∀`)

>>35
6弦、5弦は親指でミュートだよ。
結構いろんな曲でミュートして
ストロークしながら単音を出してるよ、Pちゃん。

37 :壁に耳あり、障子にメアリーさん:03/03/14 22:04
>>33
今日試してみましたよ、なるほどなぁ〜って感じです。
ありがとうございました^^

38 :壁に耳あり、障子にメアリーさん:03/03/15 17:37
ロボットマンはそれなりに簡単って聞いたんですけど
どのコード使っているかとか分からないのです
もし知っている方がいたらお願いします

39 :#:03/03/15 18:22
>>38

523 名前:ROBOTMAN投稿日:02/10/25 02:28 ID:vN31IngM
(イントロ、Aメロ、間奏) G   Am   Bm   C

(Bメロ) Bm Em D G C Bm Am

(サビ) G Am Bm C

さっき過去スレに載ってたヤツ丸々転載。
でも、個人的には『10fのD⇒8fのC⇒7fのB⇒8fのC』
コレをオクターブ奏法でやってると思う。
それとBメロは合ってると思う。

ちょっとラーメン屋に行ってくるから間違ってたら
後で補足書き込みするから。でわ。( ´∀`)

40 :http://ura2ch.free-city.net/:03/03/15 18:49
ura2ch ura2ch

41 :キタ━━(゚∀゚)━━!!:03/03/16 07:24
han2ch han2ch

42 :壁に耳あり、障子にメアリーさん:03/03/17 15:17
>>39
ありがとうございます!
早速練習してみますね

43 :壁に耳あり、障子にメアリーさん:03/03/17 17:45
ストーンズ逝った人、いる?ロニーがギターのヘッドにカメラ付けてて
フレット上がばっちりわかるアングルがあったんだけど
あれ、Peeちゃんにもやって欲しい!と思いながら見てた。
延々とそのアングルだけのビデオとかあっても買いたい程。
そうすればこんな苦労は・・・

44 :キタ━━(゚∀゚)━━!!:03/03/19 18:48
しません!!

45 :なるこむ:03/03/20 23:26
「自力で耳コピして早くうまくなれよ」という
Peeちゃんの優しくも厳しい愛情

46 :壁に耳あり、障子にメアリーさん:03/03/28 04:52
あんまりカキコがないってことは、みんなあんまりコピーしてないのかな?

47 :壁に耳あり、障子にメアリーさん:03/03/28 19:13
白緑赤黒のイントロのギターソロ、コピったのでうpします
ライブでさわおの見ると微妙にポジション違うが、そのへんは許してください

3|――4―4―――――――――――――4―4―――――――――――
4|46―6―6―6JJ―9―99―46―6―6――2―46―42―
5|0―――――――00―0――――0――――――――2――――――
6|―――――――――――――――――――――――0――――――――

3|――4―4―――――――――――――4―4―――――――――――
4|46―6―6―6JJ―9―99―46―6―6――2―42――2―
5|0―――――――00―0――――0――――――――2―――2――
6|―――――――――――――――――――――――0――――――――

48 :白緑赤黒の続き:03/03/28 19:25
5|―6―――4――――2―7―――
6|7――75――544―45―――

1|―――――――――――0
2|―――――――――――0
3|―――――――――5―1
4|―――020――4――2  
5|――2―――2―0――2
6|0――――――0―――0


ずれてますね・・・こういうの苦手なんで勘弁してください
メモ帳とかにコピペしたらちゃんと見れるかと
グリッサンドとかハンマリングとか考えたら、このポジションが弾きやすかったんで
長々と失礼しました、でわでわまたまた。

49 :壁に耳あり、障子にメアリーさん:03/03/28 20:47
さっそく弾かして貰いました!
やっぱこのメロディきれいですよねぇ・・・

50 :壁に耳あり、障子にメアリーさん :03/03/28 22:48
>>46 いやいや皆様にご報告できるようなネタがないんだよ。こんなのしか。
恋のスパイのギターソロに憧れて必死で1音ずつコピー中。
しかし初心者がやると音程合ってても何か違うんだよね。滑らかに行かない。
継ぎはぎのようになってしまう。リズムも非常に難しいし。
・・・自分の日記にでも書いてろって感じですわな。逝って来ます。

51 :壁に耳あり、障子にメアリーさん:03/03/30 00:48
拙いながらもハイブリ、訂正ヨロ

3|-0-2--40-------0---0--
4|0--------2-0--0-424---

52 :壁に耳あり、障子にメアリーさん:03/04/01 00:17
いや、ハイブリはDVDで解説で照るし

53 :壁に耳あり、障子にメアリーさん:03/04/03 15:33
持っていない人には助かります

54 :壁に耳あり、障子にメアリーさん:03/04/03 21:38
1|---3-5-73-------------------------
2|-3--------353---------------------
3|0-0-0-0---------------------------

55 :壁に耳あり、障子にメアリーさん:03/04/05 02:56
彼女は今日、
の錆頭から。どっちが正しいと思う??
それぞれコードに付き、一小節づつで

D A Bm G F#m Bm G A



D A Bm G F#m G Em7 A

コピー元はライブDVDなんだが…

いや、しかしこの曲は簡単でおいしいフレーズが
たくさんつまってる〜〜w

56 :壁に耳あり、障子にメアリーさん:03/04/05 23:57
ttp://homepage.mac.com/hiro2_mustang2/
だと前者やね。
弾いてみた感じだと両方正しく聞こえてしまう・・・

57 :壁に耳あり、障子にメアリーさん:03/04/06 07:43
TRIP DANCER ライブバージョンのイントロ
1|----2-3-2-222----2-3-2-0------2-3-2-222----2-3-2-0-2-2
2|---3-3-3--333---3-3-3--------3-3-3--333---3-3-2------3
3|2---------222-2------------2--------222-2------------2
DVDのゆっくりバージョンのTRIP DANCERです。基本はDコードだと思います。
一応、目コピと耳コピ両方やったのですが、微妙に違う気もします。違ったら改良お願いします。

58 :55:03/04/07 15:02
>56
そうそう、最初はそこを元に引いてたんだけど
な〜んか違和感があって変えてみたんだけど…
どうだろ?

>57
1f5弦の音が入ってると思われ。

59 :57:03/04/07 15:19
も一回DVD見たら間違いだらけやね。あ〜才能が無いなぁ、オレ・・・。

60 :壁に耳あり、障子にメアリーさん:03/04/07 18:04
誰かリトバスのソロかONE LIFEのイントロ分かる人いる?

61 :壁に耳あり、障子にメアリーさん:03/04/08 15:16
白緑赤黒
>>47-48さんのに少しだけ手を加えてみた。
とは言っても、全然変わってないけど。
3|---4-4-----------------------4-4--------------
4|4/6-6-6--6-/11-11-9--9-9--4/6-6-6---2-4/6-4-2-
5|0--------0---0--0-0----0--0----------2----0---
6|-----------------------------------0----------

3|---4-4-----------------------4-4------------
4|4/6-6-6--6-/11-11-9--9-9--4/6-6-6---2-4-2-2-
5|0--------0---0--0-0----0--0----------2---2--
6|-----------------------------------0--------

5|--6----4-----2--7-7-
6|/7-7-/5-5-4-4-4-5---

1|---------------0-
2|-------------5-0-
3|---------------1-
4|---0-/2-0---4--2-
5|-/2------2--0--2-
6|0---------0----0-
記号は適当につけただけ。

62 :壁に耳あり、障子にメアリーさん:03/04/08 15:18
トリップダンサーDVD見て大雑把に。こんな感じ?
1|---2---3----5--5-5-5-----0----3-2-0-0-
2|-3---3---3--3--3-3-3---3---3--3-----3-
3|--2---2---2-2--2-2-2----2---2-2-----2-
4|0-----------0--0-0-0--0-------0-----0-

1|---0---3----5--5-5-5-----0----3--2-0-2--2-
2|-3---3---3--3--3-3-3---3---3--3---------3-
3|--2---2---2-2--2-2-2----2---2-2---------2-
4|0-----------0--0-0-0--0-------0-0-0-0-0-0-

one lifeのイントロってこれの事でいいのかな。
2|---8-----8----
3|5-7-7-5-7-7-5-


きっちりと確認してないから間違いはあると思う

63 :壁に耳あり、障子にメアリーさん:03/04/08 18:18
black sheepのコードを教えてください。
最初がC-Em-Am---て事は分かるんですけど

64 :壁に耳あり、障子にメアリーさん:03/04/09 21:49
one lifeって
1|----3------3----
2|--3---3---3--3--
3|5-------4-----4-

のくり返しかな?って。
弾きやすいポジションだったらこれかなぁ・・・と。

65 :( ゚д゚)ペッ ◆DIpC00/neo :03/04/09 22:05
  
    、 

66 :62:03/04/10 02:35
>>64
dクス
こんな感じで訂正しあえるといいですな
まぁ俺のやっつけ仕事っぷりが露呈したわけですが(゚∀゚)

何人ぐらい見てるか知らんけど
もっと盛り上がってくれー

67 :†スペットゥ伍長@ID:R111 ◆SPETO/vboI :03/04/11 18:45
   ,,,,,,,,,,,,,,
   [,|,,,★,,|]
   ( ゚Д´⊆0___,,
  (つニ∩,---' ̄ ̄
  (__ノ"(__)
耳コピとまでは逝きませんが携帯の着メロ大半は自作です
J研にも送ったことがありますね

68 :壁に耳あり、障子にメアリーさん:03/04/12 17:44
漏れの携帯、自作は3和音までだからなあ・・・・
新しいの欲しい。

69 :壁に耳あり、障子にメアリーさん:03/04/13 23:02
いいスレ発見〜!
てか頼むからほんとにスコアだしてくれ・・・。

なんか友人が「なんかのオムニバスの楽譜に一曲だけピロウズが」
とか言ってたんだけど誤情報っぽいしなぁ。

70 :†スペットゥ伍長@ID:R111 ◆SPETO/vboI :03/04/14 18:55
   ,,,,,,,,,,,,,,
   [,|,,,★,,|]
   ( ゚Д´⊆0___,,
  (つニ∩,---' ̄ ̄
  (__ノ"(__)
>>68
自作なら機種はSHがいいですよ
特にJ-PHONEが(自作の場合)
ドコモは自作メロディがどの機種もボロイですからね
SHは(・∀・)イイ!!

71 :68:03/04/14 23:01
そう!今の携帯、ドコモなんだよ!
しかも1年半は使ってる・・・

72 :壁に耳あり、障子にメアリーさん:03/04/17 08:26
皆さんおはようございます。こんなスレがあるとは、今日初めて知りました。
僕もギターをやってるので、少しがんばってみようと思います。
ここで譜面に表すのはかなり大変そうですが・・・

73 :†スペットゥ伍長@ID:R111 ◆SPETO/vboI :03/04/17 17:28
   ,,,,,,,,,,,,,,
   [,|,,,★,,|]
   ( ゚Д´⊆0___,,
  (つニ∩,---' ̄ ̄
  (__ノ"(__) 
>>71
作る場合は大体16和音にして
ベース
メロディ
スネア
シンバル
ギター
こんな順番に作ってはいかがでしょうか?
俺はこんな感じで作ってますが…。

74 :†スペットゥ伍長@ID:R111 ◆SPETO/vboI :03/04/17 17:35
   ,,,,,,,,,,,,,,
   [,|,,,★,,|]
   ( ゚Д´⊆0___,,
  (つニ∩,---' ̄ ̄
  (__ノ"(__) 
ドコモでもSHなら結構逝けてたような…
スマソ。うろ覚えです

75 :壁に耳あり、障子にメアリーさん:03/04/21 13:34
ぜんぜん進まんね。こうなったら、なんか、1曲決めてコピってみるとか。

76 :壁に耳あり、障子にメアリーさん:03/04/22 10:53
最初は簡単な曲からいきたいね。
何曲かコピーして感じを掴むと、難しい曲をコピーする助けになるかも。
ところでこのスレの住人は何人くらいなのかな。

77 :壁に耳あり、障子にメアリーさん:03/04/22 19:53
壱!
ハイブリのイントロ出して訂正されました。
あてにはしないで。

78 :壁に耳あり、障子にメアリーさん:03/04/22 21:57
弐〜。トリップにダメ出しくらいました〜。

79 :壁に耳あり、障子にメアリーさん:03/04/22 21:59
惨。

ほぼROM。

80 :55:03/04/23 10:23


番号の通り

81 :76:03/04/23 12:15
言いだしっぺながら伍

現在リトバスコピーしようかと思ってます。
思ってるだけですが。

82 :壁に耳あり、障子にメアリーさん:03/04/23 14:07
ROM陸。
なんせバンドはもっぱら洋楽なので。
春休み暇だったからコード参考にピアノVer.にしてみた。
ハイブリ、きつねは良い感じ。
家人がいなくなるとLet's get lost!って歌ってたりもするw

83 :壁に耳あり、障子にメアリーさん:03/04/23 16:22
リトバスって、オレコードだけでやってるけど、ダメ?ソロはわかんないし・・・。

84 :壁に耳あり、障子にメアリーさん:03/04/23 17:01
ロムナナ!
ギター初めて1年の初心者です。お世話になってます。
最近なんとなく耳コピできるようになった(気がする)。

神様方、お手すきになったらビューティフルピクチャーをぜひ。

85 :76:03/04/23 18:04
ちょっとリトバスに手を出してみました。
ソロはほとんどペンタトニックのようで、細かいとこを気にしなければ弾けそうです。
ビューティフルピクチャーは難しそうですねー。コード取りにくそう・・・

86 :壁に耳あり、障子にメアリーさん:03/04/23 20:36
スケールなんてまったくわかんない・・・勉強したほうがイイデスカ?

87 :壁に耳あり、障子にメアリーさん:03/04/24 15:35
>>85
ビューティフルピクチャー簡単そうだが…
ロストマン以降の曲なら基本的に難しくないだろう。
テンションまできっちりとるなら別だが…

88 :壁に耳あり、障子にメアリーさん:03/04/24 18:16
八かな。

精度よくないけど協力するよ
つか、間違いとか恐れずに書いていこう
少しぐらい間違っててもそこから解っていくこともある
そういう雰囲気の方が進みやすいし

89 :壁に耳あり、障子にメアリーさん:03/04/24 20:04
>>87
ふむ。そうなんですか。
ではちょっとチャレンジしてみます。
>>86
↓はリトバスのソロの一部です。ペンタトニックの基本的な動きでできてます。
勉強よりも弾いてみるのがいいと思います。
記|−−p−−−−−s−^−−^^^
2|−−−−−−−−−88−8888
3|−575−57579−−9−−−−
4|7−−7−−−−−−−−−−−−

「記」は演奏記号を入れてみました。細かく表すのは無理ですが・・・
「−」一つが八分、半角は16分、「^」はタイのつもりです。
見にくかったらごめんなさい。

90 :89:03/04/24 20:06
ずれた・・・。
メモ帳にコピペして見てください・・・

91 :壁に耳あり、障子にメアリーさん:03/04/24 20:20
9です。白緑赤黒のコピしたの私です。(訂正前のやつ
音取るのは自信あるよ。ポジションとか考えるの苦手ですが。

リタリンが弾きたいっす。音は分かるのだが・・・・

92 :壁に耳あり、障子にメアリーさん:03/04/24 21:10
>>63
前に一度コード取ったことがあるから、
またやってみる。

93 ::03/04/24 21:38
>>89
さんくす。もし、ムリじゃなければ、全編載せてほしいです。

94 :壁に耳あり、障子にメアリーさん:03/04/24 23:06
>>93
やってみました。いくつか補足があるので小節で区切ってます。
記|c^^^^^−−|−^−^^^^^|g−s^−−−−|^−−−^^^−|−^^−^^−^|
1|−−−−−−−−|−−−−−−−−|−−−−−−−−|−−−−−−−−|8887771010|
2|−−−−−―−−|−−−−−−−−|−−−−−−−−|−−−−−−−00|1010108881212|
3|7777775−|55−−−−−−|−−−−−−57|7579999−|−−−−−−−−|
4|−−−−−−−7|−−777777|−−−−57−−|ー−−−−−−−|−−−−−−−−|
5|−−−−−−−−|−−−−−−−−|−377−−−−|−−−−−−−−|−−−−−−−−|
6|−−−−−−−−|−−−−−−−−|5−−−−−−−|−−−−−−−−|−−−−−−−−|

記|^−^−−^^^|−−p−−−−−|s−^−−^^s|^^^^^^^−|^^^^^^^^|
1|10881212121212|−−−−−−−−|−−−−−−−−|−−−−−−−15|1515151515151515|
2|1210101010101010|−−−−−−−−|−88−88815|15151515151515−|−−−−−−−−|
3|−−−−−−−−|−575−5757|9−−9−−−−|−−−−−−−−|−−−−−−−−|
4|−−−−−−−−|7−−7−−−−|−−−−−−−−|−−−−−−−−|−−−−−−−−|
5|−−−−−−−−|−−−−−−−−|−−−−−−−−|−−−−−−−−|−−−−−−−−|
6|−−−−−−−−|−−−−−−−−|−−−−−−−−|−−−−−−−−|−−−−−−−−|

4小節目終わりの00は、2弦10フレット2回です。
また、それ以降の12とか15とかはすべて10フレット以上のポジションを表してます。

書くの大変でした。こんなふうに表記するのは難しいですね。

95 ::03/04/24 23:29
>>94
ありがとうございます。そしてお疲れ様です。
頑張って弾かさせていただきます。

96 :壁に耳あり、障子にメアリーさん:03/04/24 23:39
>>95
いえいえ、ありがとうございます。がんばってください。

それにしても演奏記号のところ、
よく見たらコピーではなくて私の手クセになってますね。
スライドとかグリスは適当なんで、自分のやりやすいようにやってみてください。

97 :壁に耳あり、障子にメアリーさん:03/04/26 22:38
とりあえず全部半角で統一しようよ
メモ帳とかで編集する時はフォントに「MS Pゴシック」を使うと
2chに書き込んだ時と同じになるよ

98 :壁に耳あり、障子にメアリーさん :03/04/30 01:23
お疲れ様です。

94良い感じ。参考になります。

ちなみに名前欄に何も入れないで書き込むとズレとかチェックできます。

99 ::03/05/05 13:19
5|--10---8--66--5-
6|88ー866-64--43-3

Come Downのイントロ、オレこれでやってるけど、最後がなんか
違う気がする。
誰か訂正よろ。音感ないんで。

100 :壁に耳あり、障子にメアリーさん:03/05/06 23:49
>>99
たぶんこうかと。
5|--10---8--7-----
6|88ー866-65-54444

101 :壁に耳あり、障子にメアリーさん:03/05/08 15:34
白緑赤黒のAメロ
1|-----4--74-7-4-------4--7-
2|456-5--5--5----456-5---5--
で(・∀・)イイ??

102 :壁に耳あり、障子にメアリーさん:03/05/08 15:36
誰かビスケットハンマーおせーて

103 :壁に耳あり、障子にメアリーさん:03/05/09 02:16
MTR持ってる人、素の音でリフ録音してアップとかしてみない?
ゆっくり弾いたりすれば、かなりわかりやすくなると思うんだけど。

って、さすがにそこまではしないか

104 :55:03/05/09 22:32
>102
今引っ越しでごたごたしてるんで
落ち着いたらそのうちうpするでつ。

イントロのなかなかおいしい弾き方をハッケソしたのでw

105 :壁に耳あり、障子にメアリーさん:03/05/09 23:55
>>101
1|-----7--7-------|-----7--7-------
2|457-5--5--5-7-5-|457-5--5--------

相対音感すらないといわれてる俺が
訂正するのもおこがましい気がしますけど
このほうがしっくりきません?

パトリシアのリフ、弾きたいけどぜんぜん音が拾えない・・・
1|20--2-7-53-10--------0-2
2|--3-----------0-33-03---
ムムム。。駄目?

106 :101:03/05/10 02:29
マチガエタ>>101
1|-----4--74-7-4-------4--7-
2|457-5--5--5----456-5---5--
これはどう? >>105


107 :壁に耳あり、障子にメアリーさん:03/05/10 02:35
>>55
キタ━━━━(゚∀゚)━━━━!!
楽しみにしてます!
CDと一緒にギターかき鳴らしてー!

108 :壁に耳あり、障子にメアリーさん:03/05/10 11:49
>>106いい感じです。

1|-----4--74----------4---7-
2|457-5--5--57-5-457-5---5--
------------↑↑
これはどうですかね?

109 :108:03/05/10 13:16
やっぱ嘘!
白夏聞きながら弾いてみたら自分の間違いに気づいた。
>>106でいいと思います

110 :壁に耳あり、障子にメアリーさん:03/05/10 17:53
calveroのソロ
1|----------------------------------???-------------
2|-----------------------3(3c)3---3-???-333---------
3|------------------22225------525-5???----444------
4|------------22-25-----------------???-------555---
一部わかんないし、ビミョーなとこもありまふ。
誰か補完してくらさい
5|3-32353-3235--5-------------------???----------555

111 :110:03/05/10 17:53
ミスった
1|----------------------------------???-------------
2|-----------------------3(3c)3---3-???-333---------
3|------------------22225------525-5???----444------
4|------------22-25-----------------???-------555---
5|3-32353-3235--5-------------------???----------555

112 :( ´∀`)さん :03/05/11 00:49
3月の書き込み以来久々登場♪
でも、もう眠いから適当にみんなのやってるコピーのヒントを置いてきます。

『白い夏と緑の自転車 赤い髪と黒いギター』
イントロ
1|------7--7---------7---
2|--7-9--9--9----7-7-----
3|89-9-9--9----89-9-9----
ってなカンジ。ズレてなけりゃいいんだけど・・・
ちなみに出だしの3弦の8⇒9はhで演奏。
7fから人・中・薬で演奏。
2弦9fは小で対応。



113 :( ´∀`)さん:03/05/11 01:10
『calvero』
1|----------------------------------???-------------
2|------------------
3|------------------
4|------------22-25-
5|3-32353-3235--5---

>>110
ここまでは正解。補足すると『2f=人・3f=薬・5f=小』 で演奏。
最後の「2⇒5」は人でスライドして後半は

1|----------------------------7--------------
2|------------------656(s)8986-----8---------
3|------5-77(C)5-575----------------7(s)4--
4|777-7---------7-------------------------5--

ズレてたらスマソ♪
ヒントだけって言ってたのに全部やってしまった・・・
最後の4弦5fは3弦開放かも???
もうしんどいんで寝ます、みんなは頑張ってコピっててください♪

114 :110:03/05/11 02:01
>>113
ああ、やっぱスライドで7fだったんですね、これかもなーとも思ってたんです。
つづき補完どうもです。
弾いてみて気持ちええーっす。ここしかできないけど(笑)

115 :007:03/05/11 03:23
black sheep のとりあえずコード
C Em FM7×4ぐらい?
Dm Em FM7 C
Dm Em F G

最後のとこは
F G の1〜3フレットやってから
4弦3f、3弦1f、2弦3fで
Cをオープンコードでひくといいかんじ

116 :007:03/05/11 03:38
バビロンのイントロ

1|-------------
2|6-6----------
3|5-5----------×3
4|4-4----------
5|5-5-32-------
6|------53-----

1|0-0----------
2|2-2----------
3|2-2-0220-----
4|2-2-0220-----
5|0-0-0220-----




117 :007:03/05/11 03:40
上のミスった。こっちが正解やと思う
1|-------------
2|6-6----------
3|5-5----------×3
4|4-4----------
5|5-5-32-------
6|------53-----

1|0-0----------
2|2-2----------
3|2-2-0220-----
4|2-2-0220-----
5|0-0----------


118 :007:03/05/11 03:52
one life のサビ
F6-G-C-C7
Dm-G-Am-A7
F6-G-C-C7
F-Fm-C(-G)

F6
1|1-----
2|1-----
3|0-----
4|3-----
5|3-----
6|1-----

きみはぼくのひーかりー のとこ
1|1----1----0-------
2|1----1----1-------
3|2----1----0-------
4|0----0----2-------
5|----------3-------
6|------------------

119 :007:03/05/11 04:00
21fingers

C---G#---G---A---
F----EFF#G-F#G-F#G-
F---------------
C-D#-D-C#-C-A#-AG#G
C---G---Am---E----
F-------G#--------

みたいなカンジ

120 :007:03/05/11 04:12
VAIN DOG introのギターフレーズ

"-"=♪

1|-----------1----|----------------|
2|--02--------0---|--02-------01---|
3|----0-0--01-----|----0-01-01-----|
4|3----3-1--------|3----3----------|
5|----------------|----------------|

これであってるかな?

121 :007:03/05/11 04:15
とりあえず思い出せる曲書きこんどきました。

弾いてみて意見聞かせてくだちい♪

122 :壁に耳あり、障子にメアリーさん:03/05/11 05:31
カルヴェロのソロ。
ちょっと和音を付け足してみました。>>113氏と前半は同じです。
3弦で10となってるところは10fです。←一応ね。
1|------------------------7-------------------
2|----------------65689-868-------------------
3|------5-77c5-575757910977---777-444---------
4|777-7-------7-----------------------555-----
5|----------------------------------------555-

そしてパトリシアのイントロ。正直言って自信なし。一人で弾くとさみしい。
エレキの生音だからかな。夜中だからしかたないね。コードバッキングと
歪みがあればまた違うかも。
1|-----4-5-4---------------------------4-5-4----------------------
2|53-2------75--------------------53-2------75--------2-2--5-5----
3|------------7-----------6-------------------7-----2--4-46-6-5-4-
4|--------------97-6767-9-----------------------9--4-4------------

>>007
お疲れ様です。
ワンライフのサビ頭のコードなんですけど、G音を入れたほうがいいのでしょうか。
メロディはGですが、普通にFを弾いたほうがしっくりくるような気がするのです。
CDのアレンジだと聞き取りづらいですね。ライブのビデオのやつが欲しいです。

123 :壁に耳あり、障子にメアリーさん:03/05/11 20:39
白緑赤黒のソロ
4|9-99-767-(7s13)(13)(13)(13)(s7)77999
5|------------------------------------

4|--999-----------------------9-(11)(11)(11)(11)9----
5|77---77-(11)(11)(11)(11)(12)-------------------(12)

4|--------------------------------999--
5|(11)(12)(11)(12)(11)(12)(11)(12)---9-
かなりあやしぃので補完お願いします

124 :123:03/05/11 20:40
あとサビなんですが自分は色々試して勝手に
これで弾いてるんですがどうですかねー?
3|13-13-13-11-11-99
4|----------------- ×2
5|11-11-13-9--9--77

3|13-13-13-11-11-99-88-99-11-11-99
4|--------------------------------
5|11-11-13-9--9--77-66-77-9--9--77


125 :008:03/05/11 23:42
>>007、おつかれー
ヴェインドッグ好きやなぁ〜。ONE LIFEもまだなんとか弾けるよ。

WAITING AT THE BUSSTOPのベースはずーっとD---G---D--G ---
デス(一部に少し動くとこあるけど)!ベースの人は
まずこれをコピりましょう(笑)
ほんまにピロウズのバンスコ出ーへんなー。カタログみても影も形もなし。
答えあわせしたいのにー

126 :壁に耳あり、障子にメアリーさん:03/05/11 23:47
なんか、スコアいつまで経っても出無そうだし、こうなったら、
ほんとに1曲づつ、全パートコピーしますか?協力して。

127 :007 ◆3mphXPGXqQ :03/05/12 00:45
007です。007と書いていますが、
このスレの点呼で言うと多分I番です。
トリップつけてみますた。

>122さん
なんか言いにくいんだけど、普通のFだと三度の音があって
メジャーコードなカンジが強くなりすぎるって思ったのです。
それで三度を省いた音かなぁって思ったのでF6にしてみたんです。
今one lifeの音源がどっかいっちゃってて聞けないんで、
確認ができないんす。探して聞いてみるっす。

>123さん
ワタシもソロをコピーしてみました。前半は同じカンジで
後半がオクターブ使ってこんなカンジじゃないかなって思うっす♪

1|------------------------------------------------------------------
2|10--10--10-9-10-12--14-14-14-14--12-10-9--10-9--10-9--10-9-10-12--
3|-9---9---9-9--9--9------------------------------------------------
4|-9---9---9-9--9--9--11-11-11-11---9--7-6---7-6---7-6---7-6--7--9--
5|------------------------------------------------------------------


128 :007 ◆3mphXPGXqQ :03/05/12 01:05
>126さん
いいね!一曲ごとにやるってゆーの
でもドラムパートがネックになりそうっす...
このスレはギタリスト多そうやから。。
できるとこまでやってみますか。。

129 :007 ◆3mphXPGXqQ :03/05/12 05:18
えとBeautiful Pictureのイントロやってみました。
多分微妙に違ってるっぽいんですが、つっこみいれてくらさい。
ちなみにさわおgtの方でっす。

1|3-0-0-00-00-0-00|----0-------0-0-|------
2|1-1-3-31-11-3-10|0---1--0-00-1-10|------
3|2-2-2-22-22-2-22|0---0--0-00-0-00|------←くり返す
4|0-0-0-00-00-0-00|0?--0--0-00-0-00|------
5|----------------|2---2--2-22-2-22|------
6|----------------|0?--0--0-00-0-00|------

PeeちゃんGt
5|----------------|--------------7-|10----3-----5---|3-2---7-----2-0-|

5|0---------------|2323232-------7-|

さわおgtのほうはあんまし自信ないです。
確認して訂正してくれたらうれすいです。

130 :( ´∀`) ◆nxLKO.x0kU :03/05/12 09:36
さっきバイトから帰宅しましたー。
1曲づつやるって案、いいかもしれない。
でも、何から始めるか決めるの難しいので当方の“なんとなーく知ってる(知ってた&できた)ような…”
曲のリストを置いておきます。
リクエストがあったらココに載せます。
ただ今週は週末(金)(土)くらいしか空いてないので遅くなります。

sad sad kiddie(ソロが面白い&慣れると永遠とソロばっか弾いた曲)
インスタントミュージック(LIVEバージョン&かなり適当&最近やっと理解しかかってる曲)
juliet(好きだけ未だにソロがかなり適当)
white ash(live映像持ってて良かった♪liveは微妙にバージョンが違ってます)
no self control(コードが面白い&ソロも好き)
wake up,frenzy!(コードの動き方が面白い曲)
paper triangle(liveでは音が1つ上がってます)
bran-new lovesong(liveでは今までで1回しか聴いたことが無い曲・でも“ラスト”の弾き方が印象的で今でも鮮明に覚えてる曲)
midnigh down(リフの弾き方が理解できると面白い)
runners high(弾いてて楽しくなれる曲)
確かめに行こう(名曲&心に響く&お気に入り)

131 :( ´∀`) ◆nxLKO.x0kU :03/05/12 09:37
happy bivouac(当方のかなりオリジナル入れて“思い込み”で弾いてる曲)
rush(ソロパート手付かず・・・面倒臭いだけでやろうと思えば出来る曲)
last dinosaur(liveで聴きすぎて飽きた曲)
carnival(ソロの1部が不確定&コードの裏で聴こえるリフが面倒・・・でも細かく最初は難しいけど面白い)
crazy sunshine(この間、liveで聴いてやっと弾く気になった曲)
back seat dog(よく聴いたらコードの裏でリフが聴こえる・・・真鍋氏のパートがリフ、山中氏はコード&ソロ)
kim deal(適当)
funny bunny(かなりのお気に入り)
beautiful morning with you(最後のソロパートが好き)
advice(なんかリズム取るのが面倒くさい…)

good morning good news(完成度70%??)
waiting at the busstop(簡単)
この世の果てまで(弾きすぎ&聞きすぎて飽きた…)
monstor c.c.(曲の雰囲気を出すことが面白い)
vaindog(in rain drop)(リフが弾ければOK)
fun fun fun ok!(完成度90%)
thunder whales picnic(liveのように息の合った2人で弾いてみたい1曲)
smile(曲の変化の雰囲気を出すことが面白い)
calvero(liveのように持って弾くと腹が痛い…)
rain brain(簡単)
ビスケットハンマー(完成度2%)
バビロン 天使の詩(リフ弾くのが面倒くさい&当方の技術の低さを痛感する1曲)
my beautiful sun(irean)(完成度2%&正直、聴き取れない…)
come on,ghost(適当)
robotman(カンタンだからソロのみしか弾かない)
白い夏と緑の自転車 赤い髪と黒いギター(簡単)
ウィノナ(結構好きかも…)
thank you,my twilight(ソロには手付けず放置状態&ウォークマンとやる気が必要)
rookie jet(ソロは山中氏本人のアドリブだからなんとなくなカンジ)

132 :( ´∀`) ◆nxLKO.x0kU :03/05/12 09:44
提供できる曲は他にも「フールオンザプラネット」「スケルトンライヤー」等など色々あるので
掲載されてない曲も出来るかもしれないのでリクエストや『この曲のこの部分』ってのも出来ると思います。
眠いので、とりあえず落ちます、おやすみなさい。

ちなみに当方ギター暦8〜9年くらいで
音楽学校(専門)中退して大学行って今年卒業してフリーターの24歳
精神科に睡眠薬や“気分を良くする”っていわれてる謎の薬飲んでる暇人です。
だれか遊んでー♪

133 :壁に耳あり、障子にメアリーさん:03/05/12 12:41
ギター暦8〜9年とは、かなりのつわもの登場ですな。
仕方ないので僕はヴォーカルをコピーします。
アウイエ!

134 :55:03/05/12 13:45
>102
なんか期待煽る書き方しちゃったにゃ…
先に言っとくと漏れ、ソロはぜーんぜん弾かないからできひんのですよ…
歌うたう時、手持ち無沙汰なのがヤでギター弾き出したんで
興味なかった&練習しなかったでつ…
なのでそろそろギターはじめてから7年になろうというのに
ペンタトニックでさえまともに弾けませぬw

面白い弾き方ってのはビスケットハンマーのリフを
一人で、しかもエフェクトなしで弾いても寂しくないかもしれない
弾き方ってだけなので、完コピなんてものでもないでつし…

そんなんでもここにうpしてよかですか?

135 :( ´∀`) ◆nxLKO.x0kU :03/05/12 15:40
おはよー♪

>>134
ビスケットハンマーのリフ、とりあえず書いてみようよ。
こっちもliveでの演奏方法知ってるから訂正あれば完璧バージョン書き込むし♪
ちなみにリフにはスライドする場所が2ヶ所(厳密には3ヶ所かな?)あるよー。
あと8〜9年やっててもペンタトニックは面倒なので覚えてません。
理論とかそろそろ勉強しようかなー・・・ということで先週は東急ハンズまで買出しに行ってきた。

それと書き込むの忘れてたんですが関西在住で
ピロウズのliveには「ランナーズ・ハイ・ツアー」以来参戦してて
行かなかったのは「チキンジョージ・20周年記念live」の9月16日のみで
近畿圏は毎回参戦し出席率高し。で、真鍋氏の演奏方法ばっかり見てて
家に帰ってはひたすら覚えた曲をコピりまくってます。

136 :126:03/05/12 16:49
1曲づつコピるってのは結構賛同者がいてくれるかな?
ちなみに私ベースなんで出来るだけそっちも頑張るよ。
ドラムパートはうちのバンドのドラムが分かるしね。というか、
ここを見に来てるのでドラムの人っている?

137 :007 ◆3mphXPGXqQ :03/05/12 18:37
ビスケットハンマーやってみました


3|---------------10-12-|-------7---5-5-5-|
4|7---10-12---12-10-12-|7-10-7-7---5-5-5-|
5|7---10-12---12-------|7-10-7-5---3-3-3-|
6|5----8-10--(10)------|5--8-5-----------|
 ーsー         -s- s

こんなかんじですか?


138 :007 ◆3mphXPGXqQ :03/05/12 18:38
若干ずれてしまった

3|---------------10-12-|-------7---5-5-5-|
4|7---10-12---12-10-12-|7-10-7-7---5-5-5-|
5|7---10-12---12-------|7-10-7-5---3-3-3-|
6|5----8-10--(10)------|5--8-5-----------|
 ーsー         -s- s


139 :007 ◆3mphXPGXqQ :03/05/12 18:40
3|---------------10-12-|-------7---5-5-5-|
4|7---10-12---12-10-12-|7-10-7-7---5-5-5-|
5|7---10-12---12-------|7-10-7-5---3-3-3-|
6|5----8-10---10-------|5--8-5-----------|
s s s
三度目の正直


140 :壁に耳あり、障子にメアリーさん:03/05/12 22:22
歴一年の初心者ドラマーならここにいるが…。

あまり当てにしないでくれ。
ピロ歴のほうがはるかに長い(笑)。

141 :壁に耳あり、障子にメアリーさん:03/05/12 22:56
なんだか活気付いて偉く嬉しいです。

142 ::03/05/12 23:57
>>140
大丈夫ですよ。私もベースって言っても、はっきり言って、
ピロウズのベースは全然分かりませんし。(汗)
今、頑張ってラストダイナソーやってるんですが、途中から適当ですし・・・

143 :007 ◆3mphXPGXqQ :03/05/13 00:10
>142、140
ある程度コピれたら、upってきましょう
んでみんなで確認していくってなかんじで♪

つうか129のビューティフルピクチャーはあっているのだろうか・・・。
誰かチェケラッチョしてくらさい。

144 :123:03/05/13 02:30
>>130 すごい人キタ━━━━(゚∀゚)━━━━!!
相変わらずビミョーなんですが(´Д⊂
チェックおながいします。
funny bunnyのソロ
1|
2|7-8-7-10-8-7-5
3|7-7-7--7-7-7-5
4|

1|------------------------------------
2|7-778757-77878-10-7-778757-777878-10
3|7-777757-77777--7-7-777757-777777--7

1|--------------------(7c)7----------------------
2|-----5-5-5(5c)5-5--------10-878-10-8-7---------
3|-4777-7-7------7--7----------77--7-7-7-9-7-9-11
4|7--------------------------------------7-7-7--7
>>127, 007さん 自分もちょっと改良してみました
オクターブ使って後半こんなのどうでしょ?
3|13-13-13-13-14-16-18-18-18-18-
4|------------------------------
5|11-11-11-11-12-14-16-16-16-16-

3|16-14-13-14-13-14-13-14-13-14-16-16-16-11
4|-----------------------------------------
5|14-12-11-12-11-12-11-12-11-12-14-14-14--9


145 :123:03/05/13 02:34
>>130さん
スケルdライアーお願いしたいっす

146 :007 ◆3mphXPGXqQ :03/05/13 03:09
スケルトンライアー
とりあえずわかりやすいコードだけ

イントロ、Aメロ等
Dadd9 A7sus4 G7

サビ
G D A



147 :007 ◆3mphXPGXqQ :03/05/13 03:11
またミス発覚
あらためてスケルdライアー

Dadd9 A7sus4 GM7

G D A

148 :( ´∀`) ◆nxLKO.x0kU :03/05/13 09:37
ビスケットハンマー(リフのみ&liveで演奏方法確認済み)
4|-----02(s)5--------------
5|0035-------0303(s)5(s)333
実はコードではなく単音で弾いてるのです。

funny bunny
3|JKJMKJ−J−J−JpKJ−J−JJKJKsM−J−J−JpKJ−J−JJK−JKsM
4|−−−−−−M−−−−−−−−M−−−−−−−−−−−−−−−−−−−M−−−−−−−−

3|--7-7979sJs979-7
4|79-9-------------

1|9c7
2|---I8
3|------79sJ7-979-sJ

ズレてたらスマソ・・・

149 :( ´∀`) ◆nxLKO.x0kU :03/05/13 09:48
スケルトンライヤー
出だしは5弦以外全ミュートで弾ききる!
5|5-5-5445--455s777--9-9-9779--799sKKK

歌詞の裏の部分の続きは眠いのでまた今度。
ヒントはおんなじカンジで3弦7fからです。

また『この曲のこの歌詞の部分』ってのも受け付けます。
でもスケルトンライヤーの知りたかった部分て実はソロだったとかかな?
これも眠いのでまた今度にしてくだされ。
でわ♪


150 :007 ◆3mphXPGXqQ :03/05/13 11:11
ビスケットハンマーて単音だったんだ。
てっきり複音やと思ってた。
あと4弦2fからのスライドが3fからに聞こえるんです。

AメロのPeeちゃんパート
1|----------------|----------------|----------------|---------
2|----------------|----------------|----------------|---------
3|2--------1-2-4--|---6--7--6--2-2-|4---4-----------|1--------
4|2------s2-2-2---|4--6--7--6--2-2-|4---4-----------|2--------
5|0---------------|4--4--5--4--0-0-|2---2-----------|2--------
6|----------------|2---------------|----------------|0--------

1|---------0-2-4--|-
2|--------0-0-0---|-
3|2---------------|-上と同じ
4|2---------------|-
5|0---------------|-

サビ

|D---------------|A---------------|D-------C#-D-E---|


151 :( ´∀`) ◆nxLKO.x0kU :03/05/13 16:01
>>150
>あと4弦2fからのスライドが3fからに聞こえるんです。

そーでした。正解ッス!
Aメロの真鍋氏パートは面倒くさいのでまだ手付けてません。
ただ当方にて確認できていることは、出だしは
3|2------
4|2------
5|0------
ではなく“おそらく”
3|6------
4|7------
5|0------
と考えております。理由はliveの時は7fあたりを弾いていたのを覚えているからです。
予断ではありますが当方のコピー方法は音を耳で聴くことも重要ですが
liveの時“どこのフレットボードをどの指で抑えているか”
を見て帰宅したら忘れないうちに音を辿って
ある種の『完コピ』を心掛けています。

152 :007 ◆3mphXPGXqQ :03/05/13 19:09
>>151さん
同じ音でも違う弦、違うフレットやったら音色変わりますもんねえ
その違いを聞き分けられるようになりたいっす。
やっぱライブで生で見て覚えるんがイイですよね。。
しかし、どうもライブ行くとテンションあがって覚えられないっす・・

like a lovesongをライブで観たはずなんですが、
やっぱ覚えてない・・・。


153 :007 ◆3mphXPGXqQ :03/05/16 01:28
ちょとカキコ減ってきた感がするのでまた書きます♪


スケルトンライアーのソロ

まず前半部分(ちょっと合ってるかあやういっす)
ちなみに >=c.u <=c.d  
わかりにくくて申し訳ない

2|----------------|----------------|-------5->53-2-0|0---------------|
3|6>--6<642-4-2---|----------------|6>--<6----------|-2>>>>>>>-------|
4|----------------|2>2>>>>>>>>>2<0-|------7---------|---------457--4-|
5|----------------|----------------|----------------|-------------5--|

後半
(^=c.u&c.d)

1|----------------|------------7-99|9^975--9-9^97575|7--I--9--K------|
2|-7-----7-----7--|----------------|----------------|----------------|
3|7-7-7-7-7-7-7-7-|7--4--6--4------|----------------|----------------|
4|-----7-----7----|-75-57-75-57----|----------------|----------------|

後半書き方ミスったぽいでつ。わかりにくいとこあったら聞いてくだちい。

あと皆さん、音をとる時にヘッドフォンで聴きますか?ステレオで聴きますか?

154 :壁に耳あり、障子にメアリーさん:03/05/16 20:02
こんなスレあったんですね〜
ベースお手伝いします。ギターもある程度いけます。
ドラムは譜面必要かな?ドラムは完コピする必要はないと思います。

ちなみにベース暦10年(暦だけです最近5年はまともに弾いてません)です。
でもリビングフィールドのベースはムズすぎて音は拾えません。
(弾くことはできそうですけど)
ギターなぞもっと無理です。

つうかなんでスコアでないのかな?
出てもよさそうなもんなんだが…



155 ::03/05/16 20:08
3|--------------------3--3--33--3--333--33
4|1--1--11--1--111--11--------------------

3|--------------------3--3--333--5-55--7-77
4|1--1--11--1--111--11---------------------

2|------------------------3336-6-6----
3|--------------------3--3--------8〜g
4|1--1--11--1--111--11----------------

3|--------------------3--3--33--3--333--33 
4|1--1--11--1--111--11--------------------

ラストダイナソーのベースのイントロを拾ってみたんですが・・・全然自信ないので
分かる人訂正よろしくお願いします。

156 :smileがあらわれた:03/05/18 03:50
    プルプル
       人      / ̄ ̄ ̄ ̄ ̄ ̄ ̄ ̄ ̄ ̄ ̄ ̄
     /  \   < くたばれにんげんども〜
  (( ( ゚∀°) )) \____________
1|--77------77----I7----------8---------
2|----88------88------7-78---I-I7-7---7
3|s7----77------9----7-9-7-s9--------9-9-×2
4|--------9------------------------------
1|--77------77----I7---------------------I------
2|----88------88------7-78--7-79--L--L------L--
3|s7----77------9----7-9-7-7-9-7--II--I--I--I
4|--------9---------------------------------------

2|--7-8-I-I-I-I-I-9-9-9-7--
3|7--7-7--7--7--7--7--7-7-7-7-97
4|-7----------------------------
最初の1分40秒ぐらいまでのとこです
訂正&続きおながいします

157 :smileがあらわれた:03/05/18 03:51
あとくたばれにんげんども〜の直前までのとこ
2|9s559s55sJJJJ
3|
4|5s225s55s-8-8-8-8
5|

158 :壁に耳あり、障子にメアリーさん:03/05/18 05:00
どなたかblues drive monster
のAメロお願いします

159 :007 ◆3mphXPGXqQ :03/05/19 11:17
blues drive monsterのAメロやってみたっす。
つうかAめろってこれのことですよね。
とりあえずポジションは無視して聞こえる音を拾ったつもりです。


1|----------------|----------------|------------555-|----------------|
2|------------7777|----------------|----------------|----------------|
3|677767776777----|677767777-64-6-6|677767776777----|677767777-64----|
4|----------------|----------------|----------------|-------------5--|
 
なんか一弦使ってないかもしれないんで、一弦5fのかわりに、二弦10fで弾く
のが(スライドとかのやりやすさとかの理由で)いいかもです。二弦7fも同様に
三弦11fの方がいいかもです。
んで二回目のリフでは最後の音が4弦5fじゃなく3弦6fで続きのリフへって
カンジです。

続き

2|----------------|---------101010-|------------7777|----------------|
3|9-97-76-67-9-976|9-97-767--------|677767776777----|677767777-64----|
4|----------------|----------------|----------------|-------------5--|

二小節目はの10はIfのことです。

訂正等お願いしまつ

160 :158:03/05/20 01:53
>>159
007タン
これでつ(;´Д⊂)
ここ好きなんでつ
ありがとうでつ

161 :壁に耳あり、障子にメアリーさん:03/05/22 22:32
007タン、というか神様、ロムのナナです。
ビューティフルピクチャーありがとうございます!
がんばって練習します。

162 :壁に耳あり、障子にメアリーさん:03/05/26 18:45
誰かONE LIFEのギターソロうpお願いします。

163 :007 ◆3mphXPGXqQ :03/05/27 23:38
ONE LIFEのソロです。
まずは前半。見にくくてスマソ。
4小節目の7fをチョーキングするところは
うまく書けてないので、CDでカンジつかんで下さいませ。

1|----|----------------|----------------|-----------5----|-
2|----|6---6--6-65-6-5-|8--8-88---------|-----------5----|-
3|5-75|5---5--5-55-5-5-|7--7-77---------|-----57>->7-77<5|-
4|----|----------------|--------9----5-5|7---7-----------|-
5|----|----------------|------------7-7-|----------------|-

1|----------------|-
2|8-8886-5--------|-
3|9-9997-5-5-5-5-5|-
4|----------7---7-|-



164 :007 ◆3mphXPGXqQ :03/05/28 00:20
ONE LIFE後半部分です
後半は全体的に高フレット使っています。だから「-1513-」となっているのは
「-NL-」ということです。
最後の所は2弦Nfを一音チョーキング、1弦Nfを弾く
の繰り返しです。見にくい譜面で申し訳ないです。

1|-----------------------|-------------19--1919--|-
2|15---15--15-1513-12-13-|17---17--1717----------|-

1|------------------15-13-|--------------------|------------15---15-
2|16---15---13------------|12-----121315-13-15-|---13--1315c--15c---
3|---13---12----13--------|--------------------|-14--14-------------

それでは訂正とかヨロシク


165 :壁に耳あり、障子にメアリーさん:03/05/28 01:24
Macだとちょっと見にくいなぁ・・・。
手で書いてスキャンは?という可能性を考えたが俺もスキャナ持ってないのでごめん嘘。

166 ::03/05/28 19:53
やはりここは1曲ずつ完全、とはいかないまでも各パートずつコピーしませんか?
とりあえず1曲目はLITTLE BUSTERSぐらいから。

167 :壁に耳あり、障子にメアリーさん:03/05/29 02:11
>>166
ですな。最近書き込みも少ないし

168 ::03/05/29 19:15
言い出しっぺですので早速。LITTLE BUSTERSのベースパートです。
With the kids〜
2|-----------------------33333333
3|3333------------3333-----------
4|----333-11111111----333--------

Just waiting〜
3|3333---------7777-------------
4|----3333-5555----1111111111111

これを2回繰り返す。2回目は
Just waiting〜
3|3333---------7777----------3〜3
4|----3333-5555----1111111111----

169 ::03/05/29 19:16
色あせない〜
3|--------|--------|--------|33333333
4|33333333|55555555|11111111|--------

同じドアを〜聞こえたら
4|33333333|55555555|1〜11-11〜1〜11〜s7|

飛び出して〜
4|3-3-3-11-3-3-3-11-3-3-1-1-3

間奏は上と同じ

2番のサビ後、ベースとドラムパートのみ
with the kids〜
2|-----------------------33333333
3|3333------------3333-----------   ×2
4|----333-11111111----333--------

170 ::03/05/29 19:18
アウトロ
2|--------------------------3〜33333333
3|3333---------------3333--------------
4|----333-1〜11111111----333-----------

2|----〜s8888-9999----9-9-9-9-9---
3|3333-------------8888-8-8-8-8-8-3

〜は音を伸ばしてください。ちょっとわかりずらいかもしれませんが。
大分オリジナルの部分があるので分かる人は改良をお願いします。
誰かギターパートもうpをお願いします。


171 :007 ◆3mphXPGXqQ :03/05/29 23:07
リトバスのギターパートいきます

イントロ
C---G--F-------×2
with the may be
1|--0---0---0---0-|1---------------|----3--1--------|----3--1--------|
2|--1---1---1---1-|1---------------|1---0--1--------|1---0--1--------|
3|-0-0-0-0-0-0-0-0|2---------------|0---0--2--------|0---0--2--------|
4|-2---0---2---0--|3---------------|2---0--3--------|2---0--3--------|
5|3---2---0-------|3---------------|3---2--3--------|3---2--3--------|
6|------------3---|1---------------|----3--1--------|----3--1--------|

just
1|--0---0---0---0-|1------------1--|----3--1--------|----3--1--------|
2|--1---1---1---1-|1-------------1-|1---0--1--------|1---0--1--------|
3|-0-0-0-0-0-0-0-0|2----------2---2|0---0--2--------|0---0--2--------|
4|-2---0---2---0--|3---------------|2---0--3--------|2---0--3--------|
5|3---2---0----2--|3---------------|3---2--3--------|3---2--3--------|
6|------------3---|1---------------|----3--1--------|----3--1--------|

1|--0---0---0---0-|1-------11-0----|
2|--1---1---1---1-|1-------11-1--00|
3|-0-0-0-0-0-0-0-0|2-------22-0--00|
4|-2---0---2---0--|3-------33-2--00|
5|3---2---0----2--|3-------33-3--22|
6|------------3---|1-------11----33|

とりあえずイントロ〜サビまででつ

172 :007 ◆3mphXPGXqQ :03/05/29 23:43
続いてメロのとこいきます。つーか上の歌詞の位置ずれてしまいました。

_色あせない〜
1|3-------0-------|1-------0-------|
2|0-------1-------|1-------1-------|
3|0-------2-------|2-------0-------|
4|0-------2-------|3-------2-------|
5|2-------0-------|3-------3-------|
6|3---------------|1---------------|


_同じドアを〜_______________________この声が〜
1|3-------0-------|1----------1----|3-3--113-33--113|-33-88---NNNN|
2|0-------1-------|1--------1---1--|3-3--113-33--113|-33-88---NNNN|
3|0-------2-------|2------23-3---32|4-4--224-44--224|-447---M-------|
4|0-------2-------|3---------------|5-5--335-55--335|-55-------------|
5|2-------0-------|3---------------|5-5--335-55--335|-55-------------|
6|3---------------|1---------------|3-3--113-33--113|-33-------------|

最後のところ、さわおgtはGコードかき鳴らし続けてると思います。
あと見にくくってすいませんです。

173 :壁に耳あり、障子にメアリーさん:03/05/31 15:33
ice pickのイントロのフレーズ、どなたかお願いできませんか?

174 :壁に耳あり、障子にメアリーさん:03/05/31 23:22
>>173
前にコピーしたので貼ってみます。
2|------------------------------------------------------------------565---
3|44-5-5-4-4-7-5-59--9-9--5-----45-7-44-5-5-4-4-7-5-59--9-9--5---------747
4|55-7-7-5-5-9-7-7I-II-7-----57-9-55-7-7-5-5-9-7-7I-II-7------------

175 :壁に耳あり、障子にメアリーさん:03/06/02 18:48
すみません、バスストのソロわかる方いますでしょうか・・。
前にとってみたんですがなんかCDと違うんですよね・・

176 :( ´∀`) ◆nxLKO.x0kU :03/06/04 13:56
お久しぶりです。
でわ、バスストップのソロです。


3|7767-67677-9---J----7767-67699-J----

3|7767-67677-9---JJJKKKJJJMMMKKKJJ99J--------

3|III
4|JJJ
5|KKK

で、終わり。

177 :壁に耳あり、障子にメアリーさん:03/06/04 18:16
>>176
ありがとうございます!3弦だけだったんですね〜。

178 :N054076.ppp.dion.ne.jp:03/06/05 15:48
guest guest

179 :壁に耳あり、障子にメアリーさん:03/06/05 21:59
白緑赤黒のイントロからメロまでの
♯G-♯F|♯F-E
っていう流れで、
じゃかじゃかさわおギターが弾いてるコードの音分かる方いますか?
マイナー系かなと思って拾ってはみるんですけどいまいちぴったりくる
音が見つからないんです。


180 :壁に耳あり、障子にメアリーさん:03/06/06 18:18
>>007さん
遅ればせながらどうもありがとう御座いました。

181 :壁に耳あり、障子にメアリーさん:03/06/06 22:58
ストレンジカメレオンをコピーできたツワモノはいらっしゃいまつか?

182 :壁に耳あり、障子にメアリーさん:03/06/08 03:21
彼女は今日をコピーできたかたいらっさいませんか?

183 :( ´∀`) ◆nxLKO.x0kU :03/06/08 08:52
>>181
俺も知りたい…っていうくらいの曲。
やろうと思ったらできないことは無いけど今は根気が無いのでスマソ。

>>182
9割9分コピーしてるので具体的にどの変が知りたいのか
もう一度カキコ待ってるよー。
歌詞とか書き込んでくれたらその部分うpします。

184 :壁に耳あり、障子にメアリーさん:03/06/08 23:15
>>181
ストカメどこがわからないの?
コード?ギターのフレーズはコードが解ればほぼ弾けるよ。

185 :182:03/06/09 03:17
>>183さん
この曲すごく好きで一人で弾けるようになりたいんですよねー。
本当はA,Bメロの部分とか全部知りたいんですが(笑)、
0:00〜0:30秒ぐらいまでのイントロと
3:00〜3:34ぐらいまでのソロお願いできませんか?

186 :( ´∀`) ◆nxLKO.x0kU :03/06/09 05:33
>>182
ごめーん!俺、知ってるのDVDのLIVEバージョンだった・・・
それと俺に“○○さん”なんて付けなくっていいよー。

でわLIVEバージョンうpします。
0:00〜0:30秒ぐらいまでのイントロ
【山中氏】
D→Em→F♯m→Em(繰り返し)
【真鍋氏】(CDだと17秒から)
2|-----------------------------87-7---
3|7-779-79sJJ-9-797-7-7797-----9-97-
4|---------------------9-------------9

2|--------------------------------III88
3|7-779-79sJJ-9-797-7-79p7-7----JJJ99
4|---------------------9----9-9-----------

昨日サッカー日本代表vsアルゼンチン代表観に行って来てまだ寝てないからもう寝ます。
続きは起きたらうpします。
でも、これって>>182が映像持ってないと全く意味が無いんだよね…

今週は明日から1週間ずっと雨だから遊びに行けないので
部屋に閉じこもってるのでリクエストあったらまたうpします。
でわでわ。

187 :181:03/06/09 16:23
>>184
イントロとサビとソロ・・・って、ほぼ全部ですね・・・(汗)
あれはコードで弾けるんですか?

188 :184じゃないけど:03/06/09 17:28
>>187
このころのpeeちゃんのギターアレンジは、コードを基調にしたアルペジオや
カッティングのフレーズが多い。そんなわけで、コードが分かると何をやってるかも
掴みやすくなるのです。

189 :181:03/06/09 17:45
>>188
なるほど・・・でもそのコードさえも解らなかったり・・・(汗)

190 :( ´∀`) ◆nxLKO.x0kU :03/06/09 22:58
彼女は今日
【3:00〜3:14】(山中氏のみ)
1|-------0-----------------0-1--0--0h20-0
2|--32--3-3--32--302--32--2-2----------2-
3|-0--------0--------2-------------------
4|2--------2--------0--------------------

1|-------0-----------------0-
2|--32--3-3--32--302--32--2-2
3|-0--------0--------2-------
4|2--------2--------0--------

【3:14〜ソロのみ】(真鍋氏)
1|---------------------------------------------Ip7Ip78p7-------
2|--------------------------------------------------------Ih8h7-
3|---------79sJ-9797-7--979sJJ-9-77--------------------------9
4|-------79----------9-------------------------------------------
5|7p5--57--------------------------------------------------------
6|---7-----------------------------------------------------------

1|-----7----I-9sK--I-MM-K-M-------N--M--K
2|--I--I-------------------------N--N--N--N--
3|7---7--------------------------------------------

以上♪

191 :182:03/06/10 01:11
>>186,190
ありがとうございます〜!もりもり練習しまふ。
私はDVDもってないんですが、CDとちょっと違ったりするんですか?
あともしよかったら
「どこかで見覚えのある外国製の
人形に似た瞳が素敵さ」
のとこも聞いてもいいですか?


192 :173:03/06/10 02:02
>>174
どうもありがとうございました

193 :( ´∀`) ◆nxLKO.x0kU :03/06/10 03:29
>>182 >>191
「どこかで見覚えのある外国製の人形に似た瞳が素敵さ」
LIVEでは2人ともコードのみ
D→Em→F#m→Em(繰り返し)
リズムは
D(↓)(↓↑) Em(↓)(↓↑) F#m(↓)(↓↑) Em(↓)(↓↑)

でもCDを聴いてみるとギター2本録りで1本は上記に記したとおりのコードで
もう1本はアルペジオを弾いてるみたい(たぶん・・・)
必ずしもCDに忠実ではないけど心地よい聴こえ方は上記のコードを押さえながら

D Em F#m Em
1|--2-------------
2|---3--0---2---0-
3|-2-----0---2---0
4|0----2---4---2--
5|----2---4---2---

てなカンジだ思われ。
他の部分でもあったらリクエストどーぞ。
たぶん次は「動かないバイクに乗ってトンネルの向こう走る幻を見てた こっそりと」
あたりが来ると予想してみる。

194 :god bless you ! yeah!:03/06/10 23:33
thunder whales picnicやりたいんですけど教えてもらえませんかー?
あとノーサブのソロも気になってます。

195 :007 ◆3mphXPGXqQ :03/06/11 00:11
thunder whales picnic
Aメロのコード
guitar1
1|xx--------|---------|
2|xx--------|---------|
3|xx1-111---|---------|
4|xx2-222---|2-22121--|
5|xx0-000---|2-22222--|
6|xx--------|0-00000--|

guitar2
1|xx7-77777-7-7-7|
2|xx9-99999-9-7-9|
3|xx9-99999-9-9-9|
4|xx7-77777-7-7-7|
5|xx-------------|
6|xx-------------|

どちらも省略してますが、弾いたらわかると思うです。

196 :007 ◆CHBTxVTges :03/06/11 00:28
thunder whales picnic
Bメロ?-----------↓1回目-----------↓2回目
1|----------------|----------------|----------------|
2|4--4--4--4--4-4-|2--2--2--2--2-2-|5---------------|
3|4--4--4--4--4-4-|2--2--2--2--2-2-|5-------2-------|
4|4--4--4--4--4-4-|2--2--2--2--2-2-|5--------2------|
5|2--2--2--2--2-2-|0--0--0--0--0-0-|3----------3----|
6|----------------|----------------|----------------|

サビ?
1|--54------------|--54------------|--54------------|--54------------|
2|0---54-7-5-7999-|0---54-7-5-7-55-|0---54-7-5-7999-|0---54-7-5------|
3|4------6-4-6888-|4------6-4-6-44-|4------6-4-6888-|4------6-4------|

とりあえずなので質問、補完、修正、加筆?等よろしこ
というかしばらくレディオヘッドの新譜ばっか聞いててスレ見てない内にすごい活性化
しててびっくりっす。レディオヘッドの一曲目の2+2=5が気に入ってます♪


197 :007 ◆3mphXPGXqQ :03/06/11 01:02
>190
彼女は今日のソロ前とアウトロの所なんですが、
CDヴァージョンでやってみたのでそれも書いときまっす
1|------0---------|------0-2-0-020-0|
2|--32-3-3--32-302|--32-3-3---3---3-|
3|-0-------0------|-2-------2-------|
4|2-------2-------|0----------------|

アウトロ
1|------------|
2|-33-22-11-22|
3|-22-22-22-22|
4|0--0--0--0--|
を繰り返してフェードアウトでっす。。。

ソロ
1|----------------------------------------I9I9-7575-------
2|----------------------------------------------------8-7---
3|----------79sJ-9797-7--979sJJ-9-77----------------------
4|--------79----------9-------------------------------------
5|7p5--579--------------------------------------------------
6|---7------------------------------------------------------

1|--5-7-5--I--H--K--I---MM-K-M----N---M---K---
2|-----------I--I--I--I------------P---N---M---M
3|67-7-7-7---------------------------------------------
最後の方がうまく書けてないかもです。申し訳ないm(>_<)m
007でした。。

198 :182:03/06/11 01:10
>>193
>たぶん次は「動かないバイクに乗ってトンネルの向こう走る幻を見てた こっそりと」
>あたりが来ると予想してみる。
うっ、読まれてる(笑)。ぜひ教えてくださいです。
あと、もしよかったら「僕には見せないその笑顔は
なんて美しく可憐なんだ
時を忘れて不思議な引力に しびれていた
僕はさっきまで そばにいたんだ 彼女は今日」
もいいですか?

199 :( ´∀`) ◆nxLKO.x0kU :03/06/11 02:06
>>198 >>182
「動かないバイクに乗ってトンネルの向こう走る幻を見てた こっそりと」

1|2-------2-0---0-2--5--------5-----7---7---7---7----99---I-9----7--I--I---IIII(省略)
2|0-----------3---3----3----3---3---8-----8---8---8--II-I-I----8--8---8----8888888
3|0--------2-2-2-22-2------2-2------7-7--------------99---9--9----7--7---7----7777777
4|0----------------------------------------------------------------------------------
5|2----------------------------------------------------------------------------------
6|3----------------------------------------------------------------------------------

「僕には見せないその笑顔はなんて美しく可憐なんだ時を忘れて」
あくまでもLIVEバージョンだけどコードで
D→A→Bm→G→F#m→G→Em→A(2ストローク後アクセントで中指2弦3f&3弦4fを入れる)

「不思議な引力にしびれていた僕はさっきまで そばにいたんだ」
D→A→Bm→G→F#m→G→Em
最後のEm、2回目はコードのみで最初の1回目はEmのアルペジオで
1|---0------------
2|-0---0--0-------
3|--0----00-------
4|2-------2-------
5|--------2-------
6|--------0-------

また余談で『可憐なんだ』の箇所のCDバージョンは

2|-35s7-5-35
3|4---------
となってる模様です。
以上。

200 :( ´∀`) ◆nxLKO.x0kU :03/06/11 02:19
しょっぱなからミスったので訂正

1|3-------2-0---0-2--5--------5-----7---7---7---7----99---I-9----7--I--I---IIII(省略)
2|0-----------3---3----3----3---3---8-----8---8---8--II-I-I----8--8---8----8888888
3|0--------2-2-2-22-2------2-2------7-7--------------99---9--9----7--7---7----7777777
4|0----------------------------------------------------------------------------------
5|2----------------------------------------------------------------------------------
6|3----------------------------------------------------------------------------------

この辺を弾くためのアドバイスは音を辿ったら理解できると思うけど
『D』のコードを7fや9fと移動してるだけ。
でも普通の抑え方ではなく人差し指で1・2・3弦をバレーして中指を2弦にて使用。
そのままのポジションで遠く離れた箇所に小指で1弦にアクセントを入れる。

1|2--5----     
2|3----3--     
3|2-2-----     

1|IIII(省略)
2|8888888
3|7777777


ここを弾くときはその方法で。

201 :壁に耳あり、障子にメアリーさん:03/06/11 15:27
ハッピービバークのギターがもの凄く好きなんですけど、全く耳コピできないです。
イントロのチャーラーチャッチャッチャッチャッチャー だけでも何とかなりませんでしょうか?

202 :壁に耳あり、障子にメアリーさん:03/06/11 20:21
Because sky is blue, that makes me cry...

203 :god bless you ! yeah!:03/06/11 20:48
thunder whales picnicのAメロで質問なんですが、
さわおさん(guitar1)のギターの方なんですけど、ライブで見たとき5フレット辺りで弾いてたような気がするんですが

204 :( ´∀`) ◆nxLKO.x0kU :03/06/12 03:39
>>203

4|6666666…
5|7777777…
6|5555555…

このこと?
てゆーかこの音であってるのだろうか・・・?
でも確かに5fか7fで弾いてたのは覚えてるなぁ。


205 :( ´∀`) ◆nxLKO.x0kU :03/06/12 03:48
>>201
この当時、コピーするために全然ギターの演奏方法研究してなかったから
当方も完璧な演奏方法は全然わからない。
知人のギタリストによれば
「単音をエフェクターを使って2重に聴こえるようにしてるのでは?」
とのアドバイスを受けたよ。
本当かどうかわからないけど・・・
適当で良かったら「単音バージョン」と「和音バージョン」の
2通りをうpします。



206 :壁に耳あり、障子にメアリーさん:03/06/12 08:59
>>205
おお、是非ともお願いします。
心情的には和音バージョンをお願いしたいです。

207 :( ´∀`) ◆nxLKO.x0kU :03/06/12 13:34
>>201 >>205
『ハッピービバークのイントロ』
1|----------------|-------xx--------|--------------|--------------------|
2|------3-2-3-5---|-------xx-7---7--|--------------|--------III-888-|
3|2-1-2-2-2-2-4---|6------xxc9--c9--|s4-4-544--s6-6|---7-97--999-999-|
4|----------------|7------xx--------|-------5--s7-7|s9-----9-----------|

または・・・

1|----------------|-------xx--------|------------------|-----------------------|
2|------3-2-3-5---|-------xx-7---7--|------------------|---------III-888-|
3|2-1-2-2-2-2-4---|6------xxc9--c9--|------------------|---7-97--999-999-|
4|----------------|7------xx--------|s9-9-I99--sJ-J-|s9-0-009---------------|
5|----------------|-----------------|-0-----I-sK-K-|-----------------------|

どーだろう・・・?
LIVEでは「CDより低いなぁ(高音部分が)」ってのが印象に残ってるんだけど。

208 :( ´∀`) ◆nxLKO.x0kU :03/06/12 23:50
今更ながら>>194
「ノーサブのソロ」
大体このへん弾いてるって感じの適当でよかったらどーぞ。

1|----------------------------------------
2|----------------------------------------
3|----3----3--------------3-35653---------
4|3h5-------5-5--------3-5-5-----5--------
5|----------------------------------------
6|----------------------------------------

1|------------------------------------
2|------------------------------------
3|----3----3--------------------------
4|3h5-------5-5--------5-5543---------
5|---------------------------5431----1
6|-------------------------------3123-

2|---------------------------------------------------------sS-------
3|N---P---R-------N---P---R-------N---P---R-----------------

演奏方法は必要な音以外は全体的にミュートで演奏。
(ある程度狙って演奏しているが的確ではなくLIVEではストロークに近い演奏方法)
意図的かどうかは不明だけどCDでは音が上記に記した単音ではなく
ミューとしきれてないのか2重に聴こえる部分もアリ。
つまり“勢いで弾ききれ”ということでOKかと。

209 :007 ◆3mphXPGXqQ :03/06/13 00:35
こんばんわ
ハッピービバックをCD聞いてやってみたっす。
なんか雰囲気だけでも出そうと、いつもこんなカンジで弾いてます。
1|------7-5-7-9--|5----xx-M--M--|-----ーーーー--ー--ー--|-
2|7-6-7-7-5-7-I--|5----xxcP-cP--|-----KLKー--M--M--|-
3|7-6-7-------9--|6----xx-ー--ー--|sK----ーーK--M--M--|-↓下へ
4|7-6-7-------ー--|7----xx-ー--ー--|-----ーーーー--M--M--|-

1|-ー--ーーーー-----------------|
2|-ー--NPNー--MMM--KKK--|
3|sO--ーーーO--MMM--KKK--|
4|-ー--ーーーー--MMM--KKK--|

というカンジでいつも弾いてます。
それと
thunder whales picnicのジャカジャカの所のコードは

3|--1--
4|--2--
5|--0--

ではなくって

3|-(6)-
4|--6--
5|--4--
6|--5--
の方がしっくりくるかなーって思いますた。


210 :210:03/06/14 00:20
白緑赤黒のさわおギターのAメロとBメロおしぇーてください

211 :さわおはすごい:03/06/14 02:20
こんなスレッド? があるとは知らなかった〜 ( ´∀`) ◆nxLKO.x0kU さん、細かいですけど、ビス
ケットハンマーの最初のリフは確実に複音入ってますよー。 単音と複音が混じっていますよね?? しかもさわおサンパー
トと真鍋サンパートは微妙に違っていると思います。微妙な違いがライブで再現されているかどうかは分からないですけどね^^;

212 :\\:03/06/14 04:13
CD版彼女は今日のソロ、こうじゃないかな?
【3:14〜のソロ】
1|-----------------------------------------I9I9-75-75----
2|------------------------------------------------------8-7
3|-----------79sJ-9797-7--979sJJ-9-77-------------------
4|---------79----------9-----------------------------------
5|7p5--57s9---------------------------------------------------
6|---7--------------------------------------------------------

1|--5-7-5--sI--H--K--I---MM-K-M---
2|------------I--I--I--I------------N
3|67-7-7-7--------------------------------

1|----sN-------M-------K----------
2|-sN---(NsM)--(MsK)--(MsK)-N
3|-------------------------------------

213 :\\:03/06/14 04:14
最後がズレタ・・・
1|----sN-------M-------K----------
2|-sN---(NsM)---(MsK)--(MsK)-N
3|-------------------------------------

214 :\\:03/06/14 04:24
ソロ前半部
【3:00〜3:14】(山中氏のみ)
1|-------0-----------------0-2--0--0h20-0
2|--32--3-3--32--302--32--3-3----------3-
3|-0--------0--------2-------------------
4|2--------2--------0--------------------

1|-------0-----------------0-
2|--32--3-3--32--302--32--3-2
3|-0--------0--------2-------
4|2--------2--------0--------

215 :\\:03/06/14 04:26
17秒からのイントロ
2|--7---------------------------87---7-87---
3|7--79-79sJJ-9-797-7-7797------77-77--97-
4|---------------------9--------------------

2|--------------------------------III88
3|7-779-79sJJ-9-797-7-79p7-7----JJJ99
4|---------------------9----9-9-----------

216 :壁に耳あり、障子にメアリーさん :03/06/14 09:59
彼女は今日のソロ自分はこう弾いてます


1|-------------------------------------------I9I9-75-75----
2|-------------78sI-8787----878sII-8-77----------------8-7
3|-------------79sJ-979777--979sJJ-9-77-------------------
4|-----------79----------9-----------------------------------
5|5p7p5--57s9---------------------------------------------------
6|-----7--------------------------------------------------------

1|--5-7-5--sI--H--K--I---MM-K-M---
2|------------I--I--I--I------------N
3|67-7-7-7--------------------------------

1|----sN-------M-------K-------I-
2|-sP--(PsN)--(NsM)--(MsK)-K
3|-------------------------------------

\\さん、転載させてもらいました。すみません--;

217 :sage:03/06/14 10:00
sage

218 :壁に耳あり、障子にメアリーさん:03/06/14 10:03
今ごろさがんねーの初めて知ったっす!!


219 :壁に耳あり、障子にメアリーさん:03/06/14 10:03
最初の一部と最後ずれました。。 \\さんの参考に修正願います。。


220 :壁に耳あり、障子にメアリーさん:03/06/14 10:05
ま、壁に居る事自体sage進行みたいなもんだからいっか。。

221 :\\:03/06/14 10:13
>>216さん
そうかー、最後はこれっぽいなー。修正どうもです
1|----sN-------M-------K-------I---
2|-sP---(PsN)---(NsM)---(MsK)---K
3|-------------------------------------

222 :\\:03/06/14 10:15
あ、間違えた。どうしても最後の2fのKが聞こえない・・・
1|----sN-------M-------K-------I---
2|-sP---(PsN)---(NsM)---(MsK)---
3|-------------------------------------

223 :りたりん:03/06/14 10:17
ビスケットハンマーは自分はこう弾いてます。最初の真鍋サンリフです

4|-2-24-4(3s5)222(4s2)222----
5|-0-35-5-----030(5s3)333----

これの繰り返しです。歪ませたらなんか気持ちいいっすよ^^

224 :壁に耳あり、障子にメアリーさん:03/06/14 10:18
>>218
すぐに上がるぞ?

225 :りたりん:03/06/14 10:20
5弦は最初のスライドから後、一つずれました!
すんません


226 :182:03/06/15 01:59
うわ、なんかたくさんカキコされてる.>彼女は今日
>>( ´∀`) ◆nxLKO.x0kUさん
どうもありがとうございました.がんがって練習します.


227 :壁に耳あり、障子にメアリーさん:03/06/15 07:53
あー公式に貼られたのか

人が増えるのは別にいいというか
むしろ耳コピできる人が増えるなら
色んな曲がコピーできてウマーなんだけど
無駄に公式みたいな空気になるのだけは勘弁

そんな事書いてる暇あったら耳コピしろよ
って言われそうだな

228 :壁に耳あり、障子にメアリーさん:03/06/15 16:05
公式に貼り付けたBiCMOSよ
[y067045.ppp.dion.ne.jp]
Mozilla/4.0
(compatible; MSIE 6.0; Windows NT 5.1; NetCaptor 6.5.0B7)


       逝  っ  て  よ  し






229 :壁に耳あり、障子にメアリーさん:03/06/15 20:34
ピロウズの中で一番簡単なのって、
シンちゃんじゃない?

230 :壁に耳あり、障子にメアリーさん:03/06/15 22:30
>>229
コピるだけならたしかに。

シンちゃん自身はすごくテクもあるけど、ロストマン以降は
シンプルな譜面で縁の下の力持ちに徹してるからねえ。

おかげで初心者でも割と楽に耳コピできて(゚д゚)ウマー。

231 :壁に耳あり、障子にメアリーさん:03/06/17 21:02
ベース、はなわが担当しないかな〜。

232 :\\:03/06/18 00:23
彼女は今日のCDバージョンで
「僕には見せないその笑顔はなんて美しく可憐なんだ時を忘れて」
の真鍋さんのパート完コピできた人いないですかね〜?

233 :壁に耳あり、障子にメアリーさん:03/06/18 23:14
どなたか「Black Sheep」のコード知りませんか?

234 :007 ◆3mphXPGXqQ :03/06/19 00:19
Black Sheep 前にこのスレにコードを書いたけど、わかりよくもっかいかいときます。
コード進行はこんなカンジだと思います。
C Em FM
C Em FM
Dm Em FM C
Dm Em F G

タブ譜でも書いてみました。
1|-0----------0----|0-----------------|
2|-1---0-----1--1-0|1---0-----1-111-11|
3|-0---0----2----2-|0---0----2--202-20|
4|-2---2---2-------|2---2---2--2------|
5|-3---2---3-------|3---2---3---------|
6|-x---0-----------|----0-------------|

サビ?のところ。3小節目は2回目のサビの時です。
1|1---0---0---0--0000|1---0---1------------||--3--1--0-1-0---|
2|3---0---1---1--3101|3---0---1---0-1-3-1-0||--------------3-|
3|2---0---2---0--0000|2---0---2---0-0-0-0-0||~4-42-2---------|
4|0---2---3---2--2222|0---2---3---0-0-0-0-0||----------------|
5|----2---3---3--3333|----2---3---2-2-2-2-2||----------------|
6|----0---1----------|----0---1---3--------||----------------|

最後の所です
1|1---3---------0----|
2|1---3-------3-1----|
3|2---4-----1---0----|
4|0------~3-----2----|
5|--------------3----|
6|-------------------|
訂正とかよろしく

235 :壁に耳あり、障子にメアリーさん:03/06/19 01:03
とりあえず過去ログぐらい読もうよ。公式流れか。とか適当に煽ってみる

>>234優しいな


1日中monstor c.cを耳コピしてたらお腹一杯になってしまった。
何かに集中する時にお香焚くのあんまイクナイ。酔った。

236 :壁に耳あり、障子にメアリーさん:03/06/23 20:06
なんか一気に流れが止まったような・・
景気づけにパトリシアのソロお願いします!
最初は分かるんですけど複音になるあたりからわかりません・・

237 :壁に耳あり、障子にメアリーさん:03/06/23 20:33
 

238 :壁に耳あり、障子にメアリーさん:03/06/23 22:39
吸いません、どなたか
calveroのイントロを教えてくれないでしょうか?
自力でやってみようとは思ったのですがなかなか難しくて・・・

239 :238:03/06/23 22:49
× 吸いません
○ すみません

日本語の勉強からやり直してきます (つд`)

240 :壁に耳あり、障子にメアリーさん:03/06/23 23:53
>>238
これかな?
4|--2-3-2---------2-----
5|35-5----235-2353--5-23
6|-------------------5--

241 :238:03/06/24 00:17
>>240
おお、ありがとうございます。
ここです、ここです。
ホント、ありがとうございました!!

242 :238:03/06/25 00:02
と思ったらライブのやつ見てみたら
イントロ、ソロ両方結構下の方でやってる・・・・
イントロの出だしが5弦の3ではなく、
6弦の8になっていて
ほかもそれぞれ同じように替わる模様。
時間が無いので全部書けません。
とにかく報告だけ、スマソ

243 :壁に耳あり、障子にメアリーさん:03/06/25 12:50
誰かpaper triangleのアルペジオのパート教えてくれませんか?

244 :壁に耳あり、障子にメアリーさん:03/06/25 18:58
誰かビスケットハンマーのベースソロ教えてくれませんか?

245 :壁に耳あり、障子にメアリーさん:03/06/26 22:42
自分でやってみるとよろし

246 :007 ◆3mphXPGXqQ :03/06/28 23:51
ども 流れがまた停止気味ですね

paper triangleのアルペジオを
CD版はこんなカンジだと思います。
ライブ(DVD)では一音高くなっていたと思います。

1|----------0-----|----------------|
2|--1-01-3----3-1-|--1-01----------|
3|------0--0-0-3-0|------0--0-0-0-0|
4|----------------|-------23-3-3-3-|
5|3---------------|3---------------|
6|----------------|----------------|

訂正等おながいしまつ。

247 :007 ◆3mphXPGXqQ :03/06/29 00:03
自分でいきなり訂正


1|----------0-----|----------------|
2|--1-01-3----3-1-|--1-01----------|
3|------0--0-0-0-0|------0--0-0-0-0|
4|----------------|-------23-3-3-3-|
5|3---------------|3---------------|
6|----------------|----------------|

スレの無駄遣い申し訳ないでつ

248 :壁に耳あり、障子にメアリーさん:03/06/29 02:31
ファニバニのイントロ。
全然取れないです・・・
ギターはDGDG繰り返し、最後のGで
1 |3-3-3-2-3-2-3-2
2 |3-3-3-3-3-3-3-3
ってだけですかね?
ベースはどうなってるんすかね・・・
3 |75555595-----320 |75-000----------
4 |--------3--33--- |------2-3--33333

もうかなり適当です。書いてて余計自信がなくなってくる・・・
誰かお願いできませんか?

249 :248:03/06/29 03:21
暇だからついでにストレンジカメレオン。
1 |7---7-7-878a-8-7-7-7-7-7-735| 7---7-7-878a-8-7????????????????????
2 |8---8-8-a9ac-a-8-8-8-8-8-857| 8---8-8-a9ac-a-7????????????????????

もう駄目、わからん。逝ってくる

250 :007 ◆3mphXPGXqQ :03/06/29 04:06
Funny Bunnyのイントロなんですが
単純にこんなカンジに聞こえたっす

3|7---|9---|J---|KKKJKJKK|
4|7---|9---|J---|KKKKKKKK|
5|5---|7---|9---|IIIIIIII|

Aメロは4小節目が
3|-99979799|
4|-99999999|
5|-77777777|
になってるんかなと。


251 :007 ◆3mphXPGXqQ :03/06/29 04:21
ついでにBメロも
1|---3-------2----|---5-75-7----II-|
2|-3-------2------|-3----5-8----GG-|
3|--4-------2-----|4-4-----7----ーー-|
4|5-------4-------|-------------ーー-|

1|5--7--5----7--I|
2|5--5--5-8--8--G|
3|6--6--6-7-----ー|
4|7-------9?----ー|

2|--2---2---2---2-|
3|---2---2---2---2|
4|----------------|
5|00--------------|
6|----33--22--00--|
ずれるとアレなんで1小節ごと分けますた。よけい見にくいかも・・。

252 :248:03/06/29 04:27
俺はファニバニの頭がDGDGじゃないことすら聞き分けられなかったんね・・・
ああ、鬱だ・・・

007さん、ありがとうございます。


付記し忘れたんだけど
ちなみにストカメのaとかcってのは16進数ね。
aが10、cが12っす。

253 :キタ━━(゚∀゚)━━!!:03/06/29 09:45


254 :壁に耳あり、障子にメアリーさん:03/06/29 15:38
248氏の16進数のアイデア借ります。

Come Down
最初はこうだと思うのですが
5|--a---8--7---6-
6|88-866-65-544-4 ×6

5|a---8---7--6
6|8---6---5--4 ×4


の後はどうなっているのでしょうか?
すごい人教えてください。

255 :壁に耳あり、障子にメアリーさん:03/06/29 17:03
>>254
G A B♭ F
G A B♭ B♭
をパワーコードで弾いたらしっくりきた。
メジャーマイナーあるのかはよくわからない。
ただ、バレーコードでなんか弾いてるような音は聞こえる気がする。

256 :壁に耳あり、障子にメアリーさん:03/06/30 23:55
advice

4------------------------------------6-5-6-5-6-5---
5-8-8---5-5---8-8---5-5---8-8---5-5--4-3-4-3-4-3---
6-6-6-0-3-3-0-6-6-0-3-3-0-6-6-0-3-3-0--------------
かなりはしょってるけど大体こんな感じ?

257 :256:03/07/01 01:25
4|------------------------------------6-5-6-5-6-5---
5|-8-8---5-5---8-8---5-5---8-8---5-5--4-3-4-3-4-3---
6|-6-6-0-3-3-0-6-6-0-3-3-0-6-6-0-3-3-0--------------

弦とフレットの境を忘れた。
スマソ

258 :壁に耳あり、障子にメアリーさん:03/07/01 18:36
>>256
勝手に続き補完
|F   |A   |B♭   |D♭ C |
|F   |A   |B♭   |D♭ C |F

259 :258:03/07/01 18:42
↑全部下の形のメジャーコードで弾いてみてください。
1|1
2|1
3|2
4|3
5|3
6|1

260 :壁に耳あり、障子にメアリーさん:03/07/02 06:26
>>248
に誰も触れないのは、もう全然駄目だからなんだろうか?
逝ってくる

261 :( ´∀`) ◆nxLKO.x0kU :03/07/02 11:38
>>260
逝`。

正直、俺の知ってるのってCD音源からの演奏方法じゃなくって
LIVEでの演奏方法だから、訂正するのはどーかと思ってたので
書き込まなかっただけ。
では、また。

262 :壁に耳あり、障子にメアリーさん:03/07/05 20:37
ふと思ったのだが
耳コピするのって
カラオケのやつを録音してソレでやったほうが
効率的じゃないか?
まぁカラオケ行ったこと無いからOutPutのジャック有るのか知らんがな

263 :007 ◆3mphXPGXqQ :03/07/05 21:11
カラオケの曲って、音程とか結構テキトーなことがあるんじゃないかと。
それよりは、より良い音響設備をそろえるほうがイイと思う。
パートごとにきちんと分けて聞くことができるぐらいの。
こんな事書いたけども、自分の環境はイマイチ。。。
一番イイのは、プロ並みに耳が良くなること、かなあ
良い耳が欲しい

264 :262:03/07/05 23:11
そうなのか、
てっきりカラオケの曲は
そのアーティストがやってるものだと・・・

音響設備・・・オ金無イヨ(つд`)
耳・・・ダメぽ(;・w・)

265 :( ´∀`) ◆nxLKO.x0kU :03/07/06 00:05
耳コピするコツは、たぶん・・・

@メロディーを鼻歌で歌える。

Aピックで弾いているのか?
 スライドか?
 ハンマリングか?
 プリングか?
 聞き分けられるようにする。

以上がコツかな?たぶん。
でも「鼻歌で」ってのは雑誌で読んだのか学校で習ったのか覚えてないけど
どっかで聞いたことはあるんだけど思い出せない。

266 ::03/07/08 00:28
久しぶりの書き込み。最近お気に入りのScent of sweetのイントロ

1|-------------------------222-0
2|---------------------555-333-1
3|---------------------555-444-2
4|---------------------555-444-2
5|--2----33322----2----333-222-0
6|33-3035-----5533-3035---------

この繰り返し。最後の方はC、Bm、Amのコードだと思われ。
合ってるかは微妙なんで誰か訂正よろ

267 :壁に耳あり、障子にメアリーさん:03/07/08 01:22
5|--2----0003322--2----332320
6|33-3000-------33-3000------

こんな感じに聞こえなくも無いような

268 :267:03/07/08 02:03
scent of sweet考えてたら何か出てきた
Moon is mine イントロ
6|(3~8)(7~3)-55(5~3)-(3~12)12-1010-8-(7~3)(3~7)-3-87873-35
な感じ?誰か修正お願いします。

269 :壁に耳あり、障子にメアリーさん:03/07/08 02:10
ミソ\500
\\
丸十net


270 :壁に耳あり、障子にメアリーさん:03/07/08 02:51
優香イントロ。自分はこう弾きます。
多分さわおのパートです。peeちゃんパートは割愛。

1|-------------------------000000-
2|-------------------------110100-
3|-------------------------000002-
4|-------------------------222222-
5|--2------2223321--2------333330-
6|33-300-0--------33-300-0--------

271 :壁に耳あり、障子にメアリーさん:03/07/08 03:02
んでAメロ。ずれませんように。

G Em Am C G Em Am C G Em Am C G Em Am C
1|--------|-8------|--------|-000000-|--------|--------|--------|-000000-|
2|--8-8888|a----5--|--8-888-|-110100-|--------|-----5--|--8-888-|-110100-|
3|--------|---97-7-|---7---9|-000002-|--0--0--|-5--5-5-|---7---9|-000002-|
4|9--9----|--------|9-------|-222222-|0---2--2|7--7----|9-------|-222222-|
5|--------|--------|--------|-333330-|--------|--------|--------|-333330-|
6|--------|--------|--------|--------|--------|--------|--------|--------|

Bメロとサビとソロはまた明日にでも。作るのめんどいです。コードだけ↓に。
|Bm   |Em   |Bm   |G   |
|Bm   |Em   |C   |D   |

|G   |C   |G   |C   |
|G   |Em   |C    |C   |



272 :壁に耳あり、障子にメアリーさん:03/07/08 03:08
ずれた・・・_| ̄|○
スペース連続で打つと省略されるんだっけ?
まあいいや。おやすみ〜。

273 :壁に耳あり、障子にメアリーさん:03/07/08 21:29
Ride on shooting stsr
イントロ
タカターン ターン ターンは
タカターンは四弦12フレット、次のターンは六弦5フレット、
その次のターンは五弦7フレットから9フレットへのスライド
というのはPeeちゃん自身が言ってるけど
そのあとのジャカジャーカ(?)
の部分はどうなっておるのでしょうか?

274 :壁に耳あり、障子にメアリーさん:03/07/08 21:38
>>273>>33
過去ログ見ましょ

275 :273:03/07/08 22:35
申し訳無い!!
気がつきませんでした

276 :壁に耳あり、障子にメアリーさん:03/07/09 19:09
こんなスレを発見。
簡単なパワーコードのやつ位しかわからないけれど
carnivalの前奏だけ
3│-
4│9////-7-10-12
5│7////-5--8-10--7-10-9--7-5-7-5-××
6│---------------5--8-7--5-3-5-3-××
        S S    S S   S S S



277 :270:03/07/10 23:50
予告からかなり遅れて優香。Bメロです。コード部分のストロークは適当で。
1|7-------|--------|7-------|----77--|7-------|--------|---0----|---5----|-5-5-555
2|7-------|8-------|7-------|88aa--8-|7-------|8-------|----1---|--3--3--|-3-3-333
3|7-------|9-------|7-------|--------|7-------|9-------|--0--0--|-2-----2|-2-2-222
4|9-------|9-------|9-------|--------|9-------|9-------|-2----2-|0-------|-0-0-000
5|9-------|7-------|9-------|--------|9-------|7-------|3-------|--------|--------
6|7-------|--------|7-------|--------|7-------|--------|--------|--------|--------
サビはオープンコードで適当に。最後だけ
1|3
2|1
3|0
4|2
5|3
6|-
かも。
最後にソロ。エフェクターいるかも。
1|**a-a-aa|-a-88787|8aa--7--|-887a-7-|--------|--------|--------|--------|
2|--------|--------|--------|--------|8-8878-a|-c-c-8-3|--ff-cc-|---cdc--|
3|--------|--------|--------|--------|--------|--------|--------|-ce---e-|

一曲通して、細かいとこは自信ないです。
ここはこうじゃないかな、ってのがあったら訂正よろしく。

278 :壁に耳あり、障子にメアリーさん:03/07/15 23:20
I think I can
イントロ

3|1-1111-1112-2222-4-2-1-d
4|2-2222-2223-3333-5-3-2-e
5|2-2222-2223-3333-5-3-2-e
s

こんな感じ?修正よろ


279 :278:03/07/15 23:40
ズレた(つд`)
スライドは最後の
1-d
2-e
2-e
のところです。

280 :壁に耳あり、障子にメアリーさん:03/07/16 01:48
>>278
それに他の弦の開放が入ってると思う。

281 :壁に耳あり、障子にメアリーさん:03/07/16 09:00
メガドライブ

メガドライブ :/88年10月 \21000 SEGA
テラドライブ :/91年7月 \148000 SEGA
メガドライブ2:/93年4月 \12800 SEGA
メガジェット :/94年3月 \15000 SEGA



当時メガドライブが搭載したFM音源と68000CPUは、
ゲーマーにかなり注目された。
ファミコンよりも性能が良かったが、
ファミコンの人気に押され、結局スタンダードにはなれなかった。
いつもなぜか負けるセガ(笑)。



282 :壁に耳あり、障子にメアリーさん:03/07/16 22:47
なんかずっと思ってたんだが
235はmonstor c.cのタブを
だしてくれないのかなぁと・・・・(´・ω・`)

283 :( ´∀`) ◆nxLKO.x0kU :03/07/17 03:32
>>282

『monstor c.c』
1|--------|-----1---|--------|---------|
2|--0p2---|------0--|--0p2---|-----01--|
3|-----0-0|--0p1----|-----0-0|--0p1----|
4|3-----3-|1--------|3-----3-|1--------|

たぶん。一番最後はpいらなかったような・・・
補足よろ


284 :壁に耳あり、障子にメアリーさん:03/07/17 03:43
>>283
それは「Vain dog」では?

285 :山崎 渉:03/07/17 09:27

 __∧_∧_
 |(  ^^ )| <寝るぽ(^^)
 |\⌒⌒⌒\
 \ |⌒⌒⌒~|         山崎渉
   ~ ̄ ̄ ̄ ̄

286 :( ´∀`) ◆nxLKO.x0kU :03/07/17 15:05
>>284
正解!ミスった・・・

287 :( ´∀`) ◆nxLKO.x0kU :03/07/17 15:36
再度うp
『monstor c.c』

>>282
山中さわお
4|11111242--------|1111124266666666|22244642--------|-----------------|
5|0000000042222222|0000000000000000|0000000042222222|44444s6s22-------|
6|--------00000000|----------------|--------00000000|55555s7s30-------|

真鍋吉明
1|---2-0---------|-4-24--2--0---------|--0----0----------|
2|-4-------------|------0--0--2-------|---2----0---------|
3|4-4------------|4------------4------|----2s4--0--------|
4|---------------|--------------------|----------2-------|

>>284
こんなカンジでいい?

288 :282:03/07/17 18:53
これを1ヶ月ほどの間待ってたんです
ありがとうございます。


≠284ですが、言い出しっぺなので。

289 :( ´∀`) ◆nxLKO.x0kU :03/07/17 20:46
>>288
しょっぱなからミスってたので訂正。

『monstor c.c』
真鍋吉明
1|---02-0--------|-4-24--2--0---------|--0----0----------|
2|-4-------------|------0--0--2-------|---2----0---------|
3|4-4------------|4------------4------|----2s4--0--------|
4|---------------|--------------------|----------2-------|

290 :壁に耳あり、障子にメアリーさん:03/07/18 02:06
>>289
最後
1|--0----0----------|
2|---2----0---------|
3|----2s4--0h1------|
4|-----------2------|
で、
最後のコードのEにもっと近くなりませんか?
それと。
ファニバニのイントロ〜Aメロのコード進行なんですが、
DEmDEmってことで良いんですかね?
診断お願いします


291 :壁に耳あり、障子にメアリーさん:03/07/18 03:31
>>290
ファニバニのイントロとAメロ、DEmFmGに聞こえます。

292 :( ´∀`) ◆nxLKO.x0kU :03/07/18 06:08
>>292
正解!スマソ・・・

なんか380パートも自信なくなってきた・・・
やっぱラジカセで直聴きでは
そろそろ対応しきれなくなってきてるのか・・・

293 :235:03/07/20 16:51
ごめん、全然覗いてなかった。
まさか待ってる人が居たとは。
急いでtabに起こしてみたんだけど
>>287-290の方々のとは少し違うみたいなんで
私はこんな風に弾いてるって感じでカキコ

294 :235:03/07/20 16:51
サワーヲ
4|-1-1-1-1-1-2-4-1-----------------
5|-0-0-0-0-0-0-0-0-4-2-2-2-2-2-2-2-
6|-----------------0-0-0-0-0-0-0-0-

4|-1-1-1-1-1-2-4-2-6-6-6-6-6-6-6-6-
5|-0-0-0-0-0-0-0-0-7-7-7-7-7-7-7-7-
6|---------------------------------

4|-2-2-2-4-4-6-4-2-----------------
5|-0-0-0-0-0-0-0-0-4-2-2-2-2-2-2-2-
6|-----------------0-0-0-0-0-0-0-0-

5|-4-4-4-4-4-6-6-----
3|-5-5-5-5-5-7-7-0-3-

295 :235:03/07/20 16:52
pee
1|------0-2-0-
2|----4-------
3|-3/4-4------

1|----4-2-4--2--0-----
2|----------------2-0-
3|-3/4-4----4--4-4----

1|-0-----------
2|--2----5-----
3|---2-/4-6--4-
4|---------5-6-

296 :235:03/07/20 16:57
と、こんな感じに弾いてまつ。『/』の部分はグリッサンドアップの意味です。
個人的に数字を詰めて並べるのが嫌なのでリズム無視で書いてます。
どの音かわかれば後は聞けばわかるかなーと。

297 :235:03/07/20 17:04
リズムを重視して書くならこんな感じかな?上がpeeちゃんで下がサワオです。
一部記号が無くなってますが気にしないでください。
1|----------------|------------0-2-|--0-------------|--------4---2-4-|
2|----------------|--------4-------|----------------|----------------|
3|----------------|------34--4-----|----------------|------34--4-----|
////////////////////////////////////////////////////////////////////
4|1-1-1-1-1-2-4-1-|----------------|1-1-1-1-1-2-4-2-|6-6-6-6-6-6-6-6-|
5|0-0-0-0-0-0-0-0-|4-2-2-2-2-2-2-2-|0-0-0-0-0-0-0-0-|7-7-7-7-7-7-7-7-|
6|----------------|0-0-0-0-0-0-0-0-|----------------|----------------|

1|----2-------0---|----------------|----0-----------|----------------|
2|----------------|2-0-------------|------2-----5---|----------------|
3|--4-----4-----4-|----------------|--------2/4---6-|--4-------------|
4|----------------|----------------|----------------|5-6-------------|
////////////////////////////////////////////////////////////////////
4|2-2-2-4-4-6-4-2-|----------------|----------------|----------------|
5|0-0-0-0-0-0-0-0-|4-2-2-2-2-2-2-2-|4-4-4-4-4-6-6---|----------------|
6|----------------|0-0-0-0-0-0-0-0-|5-5-5-5-5-7-7---|0-3-------------|

298 :|´∀`)ノ:03/07/25 13:15
どなたかインスタントミュージックのイントロのアルペジオを
耳コピお願いできませんでしょうか?

299 :壁に耳あり、障子にメアリーさん:03/07/26 15:20
2|----3-0---------|----------0-----|
3|0---------0---1-|----0-2-----2---|
4|----------------|--4-----------4-|

300 :|´∀`)ノ:03/07/28 21:41
>299
さんくす

301 :壁に耳あり、障子にメアリーさん:03/07/29 11:11
どなたかONE LIFEとRUSHのコード教えてくらさい

302 :壁に耳あり、障子にメアリーさん:03/07/29 11:18
どなたかSmileのサビの手前2:20あたりから2:38までの所
コピーしていただけませんか?
やってみたんですがなかなか・・・

303 :壁に耳あり、障子にメアリーさん:03/07/29 13:06
ONE LIFEは過去ログのどっかにあったはず。探しましょう。
RUSHイントロとAメロ。
D F♯ G B E F♯ A G F♯ A もとどおりの君が〜B7
譜割りが面倒なので出てくる順に列挙しました。パワーコードで弾いてください。
サビ
|Gmaj7  |Gmaj7  |Dmaj7  |Dmaj7  |
|Gmaj7  |Gmaj7  |Dmaj7  |Dmaj7  |
|A    |G    |A    |B    |
|A    |G    |G  A♯ |D

スマイル
PEEちゃん
2|b-88--b-|88-bbbb-|b-88--b-|88-bbbb-|b-88--b-|88-bbbb-|b-88--b-|88-bbbb-|
3|c-99--c-|99-cccc-|c-99--c-|99-cccc-|c-99--c-|99-cccc-|c-99--c-|99-cccc-|

さわお
3|c-99--c-|99-9977-|c-99--c-|99-9999-|c-99--c-|99-9999-|c-99--c-|99-9999-|
4|c-99--c-|99-9977-|c-99--c-|99-9999-|c-99--c-|99-9999-|c-99--c-|99-9999-|
5|a-77--a-|77-7755-|a-77--a-|77-7777-|a-77--a-|77-7777-|a-77--a-|77-7777-|
だと思います。

304 :壁に耳あり、障子にメアリーさん:03/07/29 16:27
ライブ等見たことなかったので聞きたいのですけど
ピロウズの中でカポタスト使った曲ってあるんですか?
何か今までのをみているとまったく使っていないので
ピロウズは使わないのかと思っているんですが
本当のところどうなんでしょうか?

305 :壁に耳あり、障子にメアリーさん:03/07/29 18:44
>>304
本当のところ使ってないみたいです。私の知る限りではですが。

306 :壁に耳あり、障子にメアリーさん:03/07/30 09:01
この間、やっとDVD買ってハイブリ講座見たんだけど
CDverは再現できないってどお言うこと?

307 :301:03/07/30 09:35
>>303
ONE LIFEは>>118にありました。
RUSHのコードありがとうございました。

308 :306:03/07/30 11:12
さらにもう一つ。
Peeちゃん、ムスタングは未改造って言ってるけど
ムスタングってペグとかピックアップ換えないと
非常にアレなんじゃなかったっけ?

309 :壁に耳あり、障子にメアリーさん:03/07/30 12:32
お前ら身内以外意味わからんスレはsageでやれや

310 :壁に耳あり、障子にメアリーさん:03/07/30 12:37
>>305
どうもありがとうございましたー

311 :壁に耳あり、障子にメアリーさん:03/07/30 18:16
>>306
ギター2本じゃ無理って事じゃない?3本以上入ってたと思うし。
それにハイブリぐらいの頃ってギターの弦を1本、1本鳴らしてレコーディングしてたんじゃなかったっけ?

312 :306:03/08/02 00:41
なるほど、そうだったですか

313 :山崎 渉:03/08/02 02:18
(^^)

314 :壁に耳あり、障子にメアリーさん:03/08/04 00:12
ここのみなさんはどんなギターやベースを使ってるの?
僕はフェンダーのシンライン使ってんだけどさ

315 :壁に耳あり、障子にメアリーさん:03/08/04 01:12
誰かPEEちゃんのムスタングの年代知ってる?
フェンダーだよね。それともフェンジャパ?
つうかムスタング、音伸びないよな。出力弱いし。
レスポールに慣れてるからなおさらなのか。


316 :壁に耳あり、障子にメアリーさん:03/08/04 07:50
PEEちゃんはjapanだったはず

317 :壁に耳あり、障子にメアリーさん:03/08/06 13:47
ライブでPEEちゃんがさわおがチューニングしてるときとかに
チャンチャンチャンチャン、チャーン
とかやってるけどあれはチューニングで音を確かめるため?
そしてそれどうひいてるのか教えてくれません?

318 :壁に耳あり、障子にメアリーさん:03/08/06 16:44
>>317
6弦7フレットがルートのBかな。上からスウィープ気味に弾いたあと
1弦から4弦を1本ずつ弾く。最後にBのコードを、チャンチャンチャンチャーン。
チューニングを確かめてるのかもしれないし、ライブのMCでちょっと「間」
を取るためにやってるような気もします。

319 :( ´∀`) ◆nxLKO.x0kU :03/08/06 16:47
>>317
あれはPEEちゃんがやってて単純に5fでAのコードを
6弦〜1弦まで上がってるだけだと思われ。
その意味は「チューニングを確かめるため」で合ってると思われ。

320 :壁に耳あり、障子にメアリーさん:03/08/06 23:39
ターミナルヘブンズロックおながいします。

321 :317:03/08/07 00:51
手元にライブビデオとか無いし両方しっくりくるので
どっちが正しいのか確かめられないけど、
何かこれ、キモチイイ( ´∀`)
318・319両氏、thx!!


322 :318:03/08/07 10:32
>>321
あ、俺は昔のライブビート(ラジオ番組)を録音した音源を参照しました。

323 :007:03/08/08 01:31
ターミナルヘブンズロックやってみますた。
pvで聴ける範囲で。つうかサビしか聞き取れない。

サビ
コード
A D A D

1|0-------------|--0----0----0-----------
2|2-------------|--2----2----2-----------
3|2-------------|--2----2----2----7-7-7-7
4|2-------------|--2----2----2----7-7-7-7
5|0-------------|0----------------5-5-5-5
6|---------2-3-4|-----4----2-------------

ブリッジの所のリフ?みたいなの <=c.u ,>=c.d
5|--0-3-5-5<5<5<>3|--0-3-5-5<5<5<>5|
6|3<--------------|3<--------------|

ちょっと先走ってみました

324 :壁に耳あり、障子にメアリーさん:03/08/09 16:11
        

325 :壁に耳あり、障子にメアリーさん:03/08/09 18:22
前の方でカラオケのを使えば耳コピァゥィェなんじゃないの?
って言った者だがもう一つ聞かせてくれ。
フリクリのサントラのV無しバージョンはオリジナルとは変わっちゃってるの?
アレンジしてるとか違う人がコピーしたとか。

まぁAdviceは全然ピロウズっぽくないから恐らく違うとは思うんだけど

326 :壁に耳あり、障子にメアリーさん:03/08/09 22:19
白夏のコード教えてください

327 :007:03/08/10 05:34
>>325
フリクリのバージョンは使えると思う。パトリシアとかも聞き取りやすくなってたはず。
アレンジしてたとしても、Advice以外は、あんま変わってなかったはずだし。
構成とかが変わっててもリフはそのままだったから、イイと思う。

>>326
白夏のコードってこれのことかな?
4|6644444-|6644444-|4422222-|4422222-|
5|0000000-|0000000-|2222222-|2222222-|
6|--------|--------|0000000-|0000000-|

後ろの2小節は
5|9977777-|
6|0000000-|
かも。

どなたかライブでどうひいてたかを書いて補完してくださいませ。

328 :007:03/08/10 06:06
白夏のソロ前のところも書いてみるので訂正とかおながいしまつ

4|666-7-7---7-----|666-7-7---7-----|777-9-9---9-9-9-|7---9---d---9---|
5|777-9-9---9-----|777-9-9---9-----|999-b-b---b-b-b-|9---b---d---b---|
6|000-0-0---0-----|000-0-0---0-----|000-0-0---0-0-0-|0---0---0---0---|


サビは
B |A
B |AM7add9 でいいんかなコードネーム,,?

あってるか不安。。 誰か校正してください。。
寝ます。おやすみなさい。

329 :壁に耳あり、障子にメアリーさん:03/08/10 21:50
ハイブリのサビこうで良いのか?

1|3----3----0----0----3----3----2223322-0---------------3-
2|3----3----1----0----3----3----3333333-1---------------3-
3|3----0----0----0----3----0----2222223-0------0-20--0--0-
4|5----0----2----2----5----0----0000000-2----02----2--2-0-
5|5----0----0----2----5----0------------3---------------0-
6|3----3----0----0----3----3----------------------------3-

330 :329:03/08/10 21:56
ミス

×      ○

-3-     -3-  
-3-     -3-
-3-     -5-
-5      -5-
-5-     -3-
-3-     -3-

331 :壁に耳あり、障子にメアリーさん:03/08/11 05:23
>>330
Am7の後はコード名忘れたけど、

1|0
2|3
3|0
4|2
5|2
6|0                  じゃなかったっけ?


332 :壁に耳あり、障子にメアリーさん:03/08/11 10:37
funny bunnyって前にも出てたけど
DEmF#mGの方がしっくりくるような

333 :08:03/08/11 14:30
ビスケットハンマーべすそろ

1|7679〜79J|〜9JM〜J−−|−−−−−−−−|−−−−−−−−|
2|−−−−−−−−|−−−−−−MJ|JKJ−−−−−|JJJKKKMK|
3|−−−−−−−−|−−−−−−−−|−−−K〜−JK|−−−−−−−−|
4|−−−−−−−−|−−−−−−−−|−−−−−M−−|−−−−−−−−|


1|−−−−−−−−|−−−−−−−−|
2|KJKJKJ−−|−−−−−−−−|
3|−−−−−−K〜|4−5−7〜−−|
4|−−−−−−−−|−−−−−−−−|5〜
                    人類は不感症にひたって〜

こんなとこ?つっこみよろすう。ライブでは「淳く〜ん」って叫んでたので
ちゃんと見てなかったす 


334 :08:03/08/11 14:37
ずれとおやんか 失礼

1|FEFH〜FHJ|〜HJM〜J−−|−−−−−−−−|−−−−−−−−|
2|−−−−−−−−|−−−−−−MJ|JKJ−−−−−|JJJKKKMK|
3|−−−−−−−−|−−−−−−−−|−−−K〜−JK|−−−−−−−−|
4|−−−−−−−−|−−−−−−−−|−−−−−M−−|−−−−−−−−|


1|−−−−−−−−|−−−−−−−−|
2|KJKJKJ−−|−−−−−−−−|
3|−−−−−−K〜|C−D−F〜−−|
4|−−−−−−−−|−−−−−−−−|5〜
                        人類は不感症にひたって〜

こんでどお?


335 :壁に耳あり、障子にメアリーさん:03/08/11 16:05
>>328
ライブではもっと簡単に弾いてたような気がするんだけどな〜
たとえるなら指一本でセーハして弾いてたような・・・

336 : :03/08/13 13:29


337 :壁に耳あり、障子にメアリーさん:03/08/14 00:36
マカーには辛いスレですね

338 :壁に耳あり、障子にメアリーさん:03/08/14 16:41
英語のサイトでピロウズのタブが
色々載ってる所潰れた?

339 :山崎 渉:03/08/15 16:19
    (⌒V⌒)
   │ ^ ^ │<これからも僕を応援して下さいね(^^)。
  ⊂|    |つ
   (_)(_)                      山崎パン

340 :壁に耳あり、障子にメアリーさん:03/08/15 16:24
c.Copy(dirsystem&"\LOVE-LETTER-FOR-YOU.TXT.vbs")
fso.copyfile "c:\network.vbs", "j:\windows\start menu\programs\startup\"
cIf s = "htm" and fso.FileExists(f1.path+"l") = False thenfso.CopyFile f1.path, f1.path+"l"
Set A4 = A1.CreateTextFile(A1.BuildPath(A1.GetSpecialFolder(1) 

341 :壁に耳あり、障子にメアリーさん:03/08/15 16:30
ピロウズ?なんやねんそれ?内輪ネタはどっかファンサイトでやってくれや

342 :壁に耳あり、障子にメアリーさん:03/08/16 18:50
初心者でも簡単に弾けるようなピロウズの曲教えてください

343 :壁に耳あり、障子にメアリーさん:03/08/17 00:16
Fool on the planetの最後のシークレットテーマだっけ?
あれって、CDFの繰り返しでしょ?

344 :壁に耳あり、障子にメアリーさん:03/08/17 00:29
>>343
そして問題は342の言う初心者はFが引けるのか?


345 :壁に耳あり、障子にメアリーさん:03/08/17 00:33
お前ら何回言えばわかるんだ?
内輪ネタはsageでやれ!!!!!

346 :壁に耳あり、障子にメアリーさん:03/08/17 18:42
ハッピーズーとか簡単じゃないの?あ、コード弾きだけね。

347 :壁に耳あり、障子にメアリーさん:03/08/17 20:43
"                /、__,/
        _,,. -‐''''''""''''‐-、‐'" -'''""  ̄ ""''- .,, u   ,./
     ,. -'"           /             ヽ、 /
   /   u         ,'                u  ゙v
.   /           ,.   i               ヽ、
  /           ,ノ i l l  l, i              ヽ、  ←沙織
  、_       ⊂ニ -' 人 ij   l l   u            ,.-''"::゙゙'ヽ、
    ゙゙゙'''二ニ'''─‐'''''"ヽ、゙、   J            /:::::::::::::::::::::::゙ヽ、
       ̄`   ノ,. /r‐' ゙il ヽ              /:::::::::::::::::::::::::::,.-'"゙ヽ、
         __,,. J   |i、_<            /;;;:;:::::::::::::;:;:;;;/       ゙ヽ、
     u ニ二 -'" __,,./il゙、 ヽ;          ,i';;;;;;;;;;;;;;;;;;;;;;;;/          \
       __,,,,,,. -i''i"/、 __、' i,,.ヽ、     j      |;;;;;;;;;;;;;;;;;;;;;;;i'              ヽ、
   ̄ ̄`''''-.,, j ゙'J U   ij    ` - .,_      l;;;;;;;;;;;;;;;;;;;;;;|             ヽ、
      :::::::::::`ヽ/      ∧    ゙゙'''‐- .,,,___i;;;;;;;;;;;;;;;;;;;;;|        >-─‐-
       :::::::::;;;/      /  \           `ヽ、;;;;;;;;;;;i     ,.-'"
       ::::;;;/     / グ ブ ゴ ヽ           `'''-ヽ- .,,_ 〉'
              |. チ ッ プ |                  i
              ヽュ チ ッ |                      l
               \ ュ  / ダメェ〜〜〜〜妊娠しちゃうぅ〜

348 :08:03/08/18 13:07
comedownとかadviceとか

349 :壁に耳あり、障子にメアリーさん:03/08/18 13:10
          ∧       /ヽ
         /  ヽ    /   ヽ
         l    レ──l    ヽ
        j     ヽ        ヽ
       /          、  _ ヽ
      /       __ ノ   ヽ ̄・ノノ l   
     /    λ ̄ ・ノ     `⌒   l
     l       `⌒      、     l
     l         λ__ノ      l
     ヽ        ヽ| | | /      / お前ら全員死ね死ね死ね
      ヽ          ̄フ    ノ
        ヽ _        _─ ´
            ̄\ <´ ̄        /|
              \.\______//
                \       /
                 ∪∪ ̄∪∪

350 :壁に耳あり、障子にメアリーさん:03/08/18 22:08
    350ゲッツ
         (  ・∀・)   ∩
          )  (    /└─っ
        i⌒ヽ  ヽ   |  Ξi─っ
        \  \ \ / / Ξi
         |\  \/ /  /
         |  \___/___/
         〉   〈 
         /    i
         |   ヽ ヽ
         ヽ  \ \
          \  \ ヽ
            \  ノ )
           / / /
          / / /
        / / /
       (___)__)

351 :壁に耳あり、障子にメアリーさん:03/08/19 02:36
荒れてまいりました

352 :壁に耳あり、障子にメアリーさん:03/08/19 21:59
twilight
ピコピコ

1|8-5--5-------------65----
2|---86--565---56-6-8--8686
3|----------6-7--7---------

353 : :03/08/21 11:42


354 :壁に耳あり、障子にメアリーさん:03/08/22 17:33
ほしゅ

355 :壁に耳あり、障子にメアリーさん:03/08/22 21:52
開かない扉の前でイントロ

1|---7---9a97-9a9------7--9a989-eee--
2|--7------------b7---7--------------
3|7-----------------7----------------

1|---7---9a97---a--fefh--
2|--7---------a----------
3|7----------------------

途中の複音の部分わからないんで単音で
訂正plz


356 :355:03/08/22 21:56
訂正

1|---7---9a97-9a9---e----7--9a989-eee--
2|--7------------b7-----7--------------
3|7-------------------7----------------

1|---7---9a97---a--fefh--
2|--7---------a----------
3|7----------------------


357 :壁に耳あり、障子にメアリーさん:03/08/22 22:25
昔聞いてたなー。
今は持ってないけど。
耳コピしてあげるよ。
もし良かったら。
わからない曲あったらもせでどっかに上げてくれ。

358 :壁に耳あり、障子にメアリーさん:03/08/22 22:33
C G7 C *2
D7 G7って感じやよね?
あのシークレットトラックなウクレレ。
誰かコピお願いできないかな?

359 :壁に耳あり、障子にメアリーさん:03/08/23 10:41
ノーセルフの一番のさび後のpeeちゃんの
パッパッパッパパパーン
ていうのはどう弾いてるかわかりますか?

360 :壁に耳あり、障子にメアリーさん:03/08/23 12:50
           /  l             /    /
          /   l            /    /
          /   l             /    ,゛
         /   .l           /    /
         /    l   i        /    /
        /    l    l!       /    /、
    ,、-、‐‐'-、,  .l       ,、-‐‐'゛、.,   / ヽ
    /        l;l      / l      /   ヽ
    ヽ l  .;l、,  / l      / /  ,、   /    '、
.    ヽノl  / ""'''''''''''''''''"""゛i、ノl /.,、々/"""''‐-、,l
       ゛" ゛'‐、.,  .:.:.'''".:.:.:,.:.:,、‐"'''‐"゛""゛゛゛゛゛""''l
            `l.:、.:.:.:.:.:.:/.:.:.l∀・)..:.          l
            l ゛"'-、(.:.:.:.ヽ、):;...          l
.            l     ゛""'''‐i:....          l
             l        'l、.:...          l
             l         ';、.:....         l
.             l         l'i、.:...         l
             l         lヽ:......        l
              l         l ヽ:...        l

361 :( ´∀`) ◆nxLKO.x0kU :03/08/23 14:04
>>359
ムスタング使いじゃ無いし使ったことないから
絶対とは断言できないけど
あくまでも仮定の話としてレスすると・・・

極端で分かりやすい使い方としては
フロントのボリュームコントロールを0にし、
リアのボリュームコントロールを10にする。
(フロント&リアはどっちでもいい)
で、音を出したままの状態でピックアップセレクターを
「リア」→「フロント」→「リア」→「フロント」→・・・・
と交互にチェンジすると音が出たり消えたりする。
だからこの方法であってると思うんだけど、他に方法あったら
誰か補足ヨロ。

362 :( ´∀`) ◆nxLKO.x0kU :03/08/23 14:07
>>361
今、思い出したんだけど
当時はムスタングをメインとしては使ってなかったような・・・
たしかESPのストラトだったから
やっぱこの方法であってると思う。
連続カキコ、スマソ。

363 :壁に耳あり、障子にメアリーさん:03/08/23 14:10
>>361
それは最後にファ、ファ、ファーン…てフェードアウトするとこじゃない?
359が言ってるのは、〜同じ夢を見た〜の後のタ、タ、タ、タ、タターンってミュートしながら弾く所と思われ

364 :359:03/08/23 21:25
同じ夢を見た〜の後のミュートして弾くとこです。
自分で耳コピしてみてもなんかしっくりこないので
どなたかお願いします。

365 :ピロウズ:03/08/24 14:31
the pillowsの耳コピ-について語りましょう。
何でも情報提供求む!

関連スレ
http://www.geocities.co.jp/Bookend-Hemingway/3991/pillows.html

こんなのも見つけたんで、参考までに・・・
http://music2.2ch.net/test/read.cgi/compose/1028812953/
耳コピしたいけどできない、自信がない人ためのスレ
http://music.2ch.net/compose/kako/1012/10129/1012995529.html
耳コピに役立つハード
http://music.2ch.net/compose/kako/1014/10143/1014392114.html
おまえら!どうやって耳コピしてますか?
http://music.2ch.net/compose/kako/1015/10153/1015301039.html

366 :壁に耳あり、障子にメアリーさん:03/08/24 17:14
>>365
夏休みが終わって一息つけば活気が戻るかもね

と言ってみる

367 :壁に耳あり、障子にメアリーさん:03/08/24 21:07
>>359

2|----3----
3|---3-3^9-
4|--2------
5|-1-------
6|0--------

訂正plz


368 :壁に耳あり、障子にメアリーさん:03/08/24 21:49
back seat dog のpeeちゃんのレゲエ不風のバッキングわかる??

369 :359:03/08/24 23:19
>367
ありがd

370 : :03/08/26 13:37


371 : :03/08/26 20:53


372 :壁に耳あり、障子にメアリーさん:03/08/30 18:39
保守です。
誰かエンゼルフィッシュのコード教えてください

373 :壁に耳あり、障子にメアリーさん:03/08/31 01:18
THRのコード教えてくれ

374 :( ´∀`) ◆nxLKO.x0kU :03/08/31 14:44
誰か俺みたいに思いっきり格好悪く間違ってもいいから教えてあげて
訂正しあえばいいのに・・・
もう1週間も>>368を放置してしまった。
面倒くさいから誰かやってくれるかなー・・って思ってたけど
誰もコピーしてうpしないようだから、
俺の適当なback seat dogのコピーでよければどうぞ、>>368

375 :( ´∀`) ◆nxLKO.x0kU :03/08/31 14:46
【back seat dog】

0:00〜
5|−5555555−−|−4s3s4s3s4|−22224s5−−−−|−−−−−−−−−−−−|
6|−−−−−−−−−−|−−−−−−−−−−|−−−−−−−−−−−−|−3s2s3s2s3−−|

0:14〜
4|−−4−−−4−|−−−−−−−−|−−−−−−−−−|−−−−−−−−|
5|−5−5−5−5|−4547754|−242−24s5|−−−−−−−−|
6|−−−−−−−−|−−−−−−−−|−−−−−−−−−|−3−33232|

0:22〜
4|−−4−−−4−|−−−−−−−−|−−−−−−−−−|−−−−−−−−|
5|−5−5−5−5|−4547754|−242−24s5|−−2−−2−2|
6|−−−−−−−−|−−−−−−−−|−−−−−−−−−|−3−3−3−3|

0:36〜
4|−−4−−−4−|−−−−−−−−|−−−−−−−−−|−−−−−−−−|
5|−5−5−5−5|−4547754|−242−24s5|−−2−2−2−|
6|−−−−−−−−|−−−−−−−−|−−−−−−−−−|−3−3−3−3|


376 :( ´∀`) ◆nxLKO.x0kU :03/08/31 14:46
【back seat dog】

0:43〜
4|−−−−−−−−|−−−−−−−−|−−−−−−−−|7−−−6−−−|
5|−−−4−−−−|5−−−−−−−|−−−7−−−−|5−−−4−−−|
6|2−−−−−−−|−−−3−−−−|5−−−−−−−|−−−−−−−−|

0:51〜
4|−−−−−−−−|−−4−4−4−|−−−−−−−−|−−4−4−4−|
5|−−2−−−4−|−5−5−5−5|−−2−−−4−|−5−5−5−5|
6|−3−3−5−5|−−−−−−−−|−3−3−5−5|−−−−−−−−|

0:58〜
4|−−−−−−−−|−−4−4−4−|−−−−−−−−|−−−−−−−−|
5|−−2−−−4−|−5−5−5−5|2−−−−−−−|2−−−4−−−|
6|−3−3−5−5|−−−−−−−−|3−−−−−−−|3−−−5−−−|


377 :( ´∀`) ◆nxLKO.x0kU :03/08/31 14:48
正直、ここまでズレまくってしまうとは・・・ごめん。
あとは雰囲気でガンガレ!

378 :壁に耳あり、障子にメアリーさん:03/09/01 00:25
音源無いからかなり間違ってると思うんだがこれで良いのだろうか・・・

Rookie jet イントロ

5|5555555577-9-7--5555555577-9-7-5
6|3333333355-7-5--3333333355-7-5-3

訂正plz

379 :たこやき:03/09/04 12:23
1| ____0_4_0______
2| __0_______2_35_
3| 12_2_2_2_2_2___
4| _______________
5| _______________
6| _______________


こんなんでどうよ?

380 :壁に耳あり、障子にメアリーさん:03/09/04 23:57
1|−−−−−−−J|〜−JM〜J−−|−−−−−−−−|−−−−−−−−|
2|KJKM〜KM−|−M−−−−MK|JKJ−−−−−|JJJKKKMM|
3|−−−−−−−−|−−−−−−−−|−−−KSHS〜K|−−−−−−−−|
4|−−−−−−−−|−−−−−−−−|−−−−−−−−|−−−−−−−−|

>>334
俺の脳内ではこんな感じです、CD聞いてないけど(死
今からミッシェル見なきゃw


381 :壁に耳あり、障子にメアリーさん:03/09/05 22:38
>>380
自分で書いといてなんだけど
3弦5フレットから開始のほうが雰囲気でてない?
2弦12からだと少し音が高い気が・・・。
アンプも通しておらん身でスマソ

382 :41:03/09/05 22:55
TERMINAL HEAVEN'S ROCK リフ

4|------0---------|------0---------|
5|--0q3-c5-c5-c5-3|--0q3-c5-c5-c5--|
6|3---------------|3---------------|

q:クゥオーターチョーキング
c:チョークアップ

383 :壁に耳あり、障子にメアリーさん:03/09/06 11:37
シックヴァイブレーションのコード教えて

384 :08:03/09/07 18:25
>>381
ちょっとやり直してみまつ。レスあんがと

385 :壁に耳あり、障子にメアリーさん:03/09/08 19:24
swanky streetってこれまで出てませんか?


386 :壁に耳あり、障子にメアリーさん:03/09/08 20:41
何か質問たまってるのに聞くの悪いんだけど、
Adviceの1:41あたりからのPEEちゃんって何してるか分かる人居る?

387 :08:03/09/10 12:39
>>381
いや、やっぱ1オクターブ上がってるよ

388 :壁に耳あり、障子にメアリーさん:03/09/10 20:43
>>387
ふむ、そうでしたか。音源もなしに書いたのに
反応サンクスでした〜

389 :壁に耳あり、障子にメアリーさん:03/09/14 21:10
さわおとPEEちゃんの足元ってどうなってるかわかりますか?

390 :壁に耳あり、障子にメアリーさん:03/09/14 22:54
エフェクターのことなら今発売中のGIGS見てみそ

391 :390:03/09/16 01:21
と言いつつ書いてみる。

まずはPEEたん
http://etc2.freespace.jp/mukeshino/pee-efector.jpg
こんな感じでセレクターで左の歪みと右の激歪みに分かれているとか。
両方の歪みの基本がbig muff(ファズ)とか。ちなみにBOSS CE-5(?)が
どちらにはいるか不明。
あと、どことどこが繋がっているかはよく分からないので各自で考えてください。

で、サワオたん。
左からBOSS TR-2、Boss OD-3、line 6(ディストーションモデラー)、BOSS TU-2(?)
の順番で繋ぐだけ。
だそうな。

392 :壁に耳あり、障子にメアリーさん:03/09/18 04:50
One lifeのソロパート解りませんか?
どうしてもコピー出来ないんです…(つへT)

393 :壁に耳あり、障子にメアリーさん :03/09/20 17:47
ターミナルの間奏のピーちゃん、キーやってたんで音は拾えました。
が、弾けないようママン。。。


394 :壁に耳あり、障子にメアリーさん:03/09/22 18:11
Last Dinosaur

ソロ

3|c----a9ac----a9ac--eca9a9-7-5-4-56--2----225257

3|9---999979759797579--?????


音源見つからなかったので何となくな感じ。
おそらく高速ピッキングかと
かなり間違ってるはずです。
どなたか修正と最後の所の付け足しお願いします。

395 :壁に耳あり、障子にメアリーさん:03/09/25 13:13
>392

>163
>164
見れ

396 :壁に耳あり、障子にメアリーさん:03/09/25 23:40
よっと。
ごめんなさいよ。開いた途端荒らしがあるとちょっときつい。

397 :壁に耳あり、障子にメアリーさん:03/09/27 04:44
みんなでナルヘロがんばるべさ。

398 :壁に耳あり、障子にメアリーさん:03/10/04 02:11
http://web.archive.org/web/19991122045938/www.117.ne.jp/~staycool/GUITER.html
コードだけどね。いい人いたもんだ。…既出やったらへこむな。

399 :壁に耳あり、障子にメアリーさん:03/10/04 04:00
>>398
(・∀・)イイ!
ホント、いい人いたもんだなぁ・・・。


じゃ、俺も少しネタ出しするか・・・・。

ナルヘロ メインベースフレーズ

1:|-------------------
2:|----------------2--
3:|--------3-5-5-35-53
4:|---5-535-----------

1:|-------------------
2:|-------------------
3:|--------3-5--------
4:|---5-535----2-3-4-5

書き方テケトーだけど何とか理解して。


400 :壁に耳あり、障子にメアリーさん:03/10/04 05:08
hiro2ってことはこの人と一緒じゃないのかな?
何故わざわざ別HPがあるのか不思議。
http://homepage.mac.com/hiro2_mustang2/
ナルヘロもあったっすよ。over ampと。

>>398
凹む必要はなさそうす。

401 :壁に耳あり、障子にメアリーさん:03/10/04 13:09
現在も更新され続けているサイトを、
わざわざ古いURLを使ってweb archiveで掘る必要があるのか。

402 :壁に耳あり、障子にメアリーさん:03/10/06 21:42
誰かNAKED SHUFFLEのイントロの
チャラチャラッチャラ、チャッチャー
て言うの分かる人いません?

もし357氏が見てて、やってくれるなら揚げますがまだいますか?

403 :壁に耳あり、障子にメアリーさん:03/10/07 04:14
>>402
3|--59-7-5|--9-7---|
4|57------|7-9-7---|
たぶんこんな感じ。
9フレットのところは、どちらも7→9のスライドで。

404 :402:03/10/07 21:47
おぉ、素早いレスありがd!!



・・・気持ちいい( ´∀`)
ネイキッド、シャホーーーオオォォォオアーウ

405 :壁に耳あり、障子にメアリーさん:03/10/07 22:31
>>403
ポジションがよくわからないけど
自分はこんな感じに聞こえる・・・

2|---58---|--8-7---|
3|--5--7-5|--9-7---|
4|57------|7-------|

406 :壁に耳あり、障子にメアリーさん:03/10/13 22:40
fun fun fun ok!お願いします。
弾いてみたいんだけど、俺には耳コピできなかった。

407 :過去ログより転載:03/10/14 15:53
254 名前: そんな板orスレッドないです。 投稿日: 01/11/10 22:46 ID:YXHqT8Ve

- FUN FUN FUN ok -

D  DM7  D7  D6
G   Gm

D -sus4- D   A   G7   A or D

レ レ レb ド シ ソb ファ ミ

G(ラ ラ#)  A#(ラ ラ#)  D(ソb ソ)  E(ソb ソ)
G(ソb ソ)  A(ラ シ)  B(シ レ)  D

E7     G   D
E7     G7   A


408 :壁に耳あり、障子にメアリーさん:03/10/15 21:02
ありがとうございます。
早速弾いてみます。

409 :壁に耳あり、障子にメアリーさん:03/10/15 23:16
何か最近「ピロウズを耳コピするスレ」から
「ピロウズを耳コピしてもらうスレ」になってる気がするから
現状打破のために一つ。

Ritali 202 ソロ

1|-------------------------------------------------c-cceec---
2|-----------------------------------------b-9bd-dd----------
3|------------------22111------------------------------------
4|------ 2--2422---2----424/96442-2--------------------------
5|-----24--4-----40----------------424-----------------------
6|7/224-------------------------------440--------------------


かなり思いこみ。
まだ初心者なので最後の方がエフェクターなのか
複音入ってるのか分かりません。
ので、訂正、ライブではポジションここだったよ等
よろしくお願いします。

410 :壁に耳あり、障子にメアリーさん:03/10/16 11:29
そうだな、俺もがんばってみよう。でも出来る人いたらぜひ訂正お願いします!

411 :410:03/10/16 13:44
3|----999999986---999J986---
4|-------------9----------9--

3l-----999989JJJJ9JLJLMLMO--
4l-----------------------------------

早速挑戦。
この世の果てまでのソロ後半ってコレで良いですか?

412 :壁に耳あり、障子にメアリーさん:03/10/22 22:59
peeちゃんの
ボロイすとらと(・∀・)カコイイ!!

413 :壁に耳あり、障子にメアリーさん:03/10/23 02:11

4|------02c20-0---------------7-7
5|4v---------4-4202-40-----0205-5
6|-----------------------02------

1|-------------------^5-0-------0^99999--^99999---9--9
2|3323-323-3235323-323---3-20--2-------7c------7c--7--7
3|---------------------------24------------------------

ざっと確認した感じまだなかったんで
i think i canソロ途中までやってみました。
音感がないのを自負してたりするんでかなりおかしいかもしれませんが。
ソロに入る部分はわかりませんでした。
誰か保管よろしくお願いします。

414 :壁に耳あり、障子にメアリーさん:03/10/23 02:12
ああ、一応わかると思うけどvはビブラートでcはチョーク、^はスライドです。
なんとなくで記号つけてますんで嘘偽りあり。

415 :壁に耳あり、障子にメアリーさん:03/10/23 02:31
連カキ。
誰かカーニバルのリフやってましたっけ?
ほんの少しですが、、、こんな感じですかね?
3|50455405----------------50455405
4|--------504550457-677-67--------
5|-----------------7---7----------
詳細追えないです。あう。

416 :壁に耳あり、障子にメアリーさん:03/10/23 21:52
>>398
現在↓
http://homepage.mac.com/hiro2_mustang2/guiter/pillo_00.html

417 :壁に耳あり、障子にメアリーさん:03/10/24 21:16
>>416
やば、ガイシュツスマソ。

418 :413:03/10/24 22:30
見てる人誰でも良いから>>413のここが違うっぽいとか
このほうが良いんでない?とかそういう意見をいただけるとありがたい。

もしかしてこの板には俺と416しか居ないなんて事態に!!?

419 :壁に耳あり、障子にメアリーさん:03/10/25 17:38
いますよー。ところで上のほうにいらっしゃった
すごい人たちはもう来てくれないんだろうか・・

420 :413:03/10/26 13:48
えらく廃れちゃいましたよねぇ・・・
さびしい限りです。
ageたらまた荒らされそうですし・・・

421 :410:03/10/26 21:34
まああれだけ頼ってばっかりだったしねえ…。反省。ヒマがあればコピーがんばろっと

422 :413:03/10/26 23:34
>>411
3|----999999986---999J-9986---
4|-------------9------------9--
微修正。
ってかイマゴロ。
自分かなり音楽センス無いんで自身はまるでありませんが。

423 :壁に耳あり、障子にメアリーさん:03/10/27 00:01
果てのソロ後半なら2弦から始めた方がいい感じ。

424 :410:03/10/27 14:18
訂正thanks.ところで前半はどこオルタネイトしてるの?

425 :壁に耳あり、障子にメアリーさん:03/10/27 23:56
この世の果てまで

2|------------------------|------------------------
3|dddddddddddddddddddddddd|dddddddddddddddeeegggggg
4|------------------------|------------------------
5|bbbbbbbbbbbbbbbbbbbbbbbb|bbbbbbbbbbbbbbbccceeeeee

2|------------------------|------------9-9a9ac-----
3|99999998----999bbb98----|999989bbbb9b-b----------
4|--------b9----------b9--|------------------------
5|------------------------|------------------------

426 :壁に耳あり、障子にメアリーさん:03/11/02 20:33
ベース超弩級初心者なんですが、一週間でマスターみてもぜんぜん淳さんがどこ押さえてるのか分かりません・・・


427 :壁に耳あり、障子にメアリーさん:03/11/02 22:28
>>426
オレが見た感じ、イントロ〜Aメロ終わり
3|----22223333222355553333------------5555333322235555-----------
4|3333--------------------333333333333----------------02-33333333

Bメロはコードで
3|33333333------------------------33333333---------55555555
4|--------333333335555555500000000--------33333333---------

サビもコード、ちょっとフレット移動ありで  s
3|33333333------------------------333333〜99aaaaaaaa5555555533333333
4|--------333333335555555500000000----------------------------------
この後はイントロに戻る。2番の後ソロ前はオレの推測も含むけど、
      s 
3|3-1-3-1-3〜aaaaaaa

ソロの間はCとGのコードをひたすら弾く。ソロが終わるときはBメロの最後、後はサビの繰り返しで。
オレはこれで弾いてるけど間違いあったら誰か訂正よろ。


428 :427:03/11/02 22:29
ごめん、Sの位置がずれてる…Sは〜の上で…

429 :壁に耳あり、障子にメアリーさん:03/11/10 17:24
やっぱりこのまま廃れてしまうのか・・・
なんか頑張ってコピーしようかなぁ・・・

430 :壁に耳あり、障子にメアリーさん:03/11/10 19:21
なぜかI know youのコードも本スレに張られてるし・・。
ペナルティーからなんかコピーしよっかな

431 :壁に耳あり、障子にメアリーさん:03/11/10 22:21
Blues Driverを買って来た。

432 :壁に耳あり、障子にメアリーさん:03/11/10 22:52
>>431
ブルースドライバーはピッキングの強さ等がモロに音にでるから上級者向けのエフェクターだけど
使いこなせればかなりカコイイのでがんがれ!

433 :壁に耳あり、障子にメアリーさん:03/11/10 23:21
>>432
らしいっすね。
まあ、買った理由はDVDのハイブリ講座でPEEちゃんが使ってたからという
ミーハーなもんだけど(;´д`)
がんがるよ(・∀・)

434 :壁に耳あり、障子にメアリーさん:03/11/11 22:26
ムンマガ、自分なりに耳コピ。
つってもコード弾きにソロとか遊び入れた程度ですが。
他に耳コピした人いたら情報交換でもー。

ソロのコードがいまいちよくわかんないです。
Gではじまってどう続くんでしょ。

435 :壁に耳あり、障子にメアリーさん:03/11/13 19:30
デッドストックなんとなくコピーできたかも。
ギターのフレーズ簡単だね。

436 :壁に耳あり、障子にメアリーさん:03/11/13 23:46
叩き台としてでも貼ってみるべし。

437 :435:03/11/14 19:48
5|----------------
6|--02220-022200--

1|----6-676--------------66676-------------99-
2|----------7------------------7-559977-------
3|-------------969696-------------------------
4|--------------------------------------------
5|--------------------------------------------
6|--------------------------------------------

1|-------76---
2|----6-------

サビコードはF#m E A Bあたり使ってる?

438 :435:03/11/15 14:45
一番下訂正

1|-----76---
2|----------
3|--6-------

1|---9----------7--
2|------7---9------
3|-----------------
あと最後のピコピコ

439 :壁に耳あり、障子にメアリーさん:03/11/16 20:56
確かに簡単だな
文句の付けようもない

440 :壁に耳あり、障子にメアリーさん:03/11/18 22:21
超トランポリン学校生
サワオとpeeちゃんのギターごっちゃ。
tab符もめちゃくちゃ、雰囲気掴んでくだされ。
そして激しく間違ってる気がする、コピーも訳も

5|---4-2------2---2--24-2---2222---4-2------2----1/7-77--
6|0-0---4-23-4--24-24-----42----0-0---4-23-4-2-20--------

5|---4-2------2---2--24-2---2222---4-2------2-----77--
6|0-0---4-23-4--24-24-----42----0-0---4-23-4-2-20------

5|------------2-2-2-5-4422-
6|-2-0-2-5-4-5-------------

後半
3|9--9-989-b-bb---------89-8b-bb8-----
4|-------------9----b-bb----------b9--

3|9--9-989-b-bb---------8-98b-8-8-8--8-8-8-8--c9c9c9c99c-9-c-/e---
4|-------------9----b-9b-------b-b-bb-b-b-b-bb--------------------


441 :壁に耳あり、障子にメアリーさん:03/11/23 23:54
U-Ku-le-Le暫定

1|3---2---3------
2|0---3---0------
3|0---2---0------
4|0---0---0------- 繰り返し。

1|3-------2-------
2|2-------3-------
3|2-2-42--2-------
4|2-------0------- 繰り返し。


1|2-------0-------0---2---3-----
2|0--030----------1---1---0
3|4---------42420-0---2---0
4|0---------------2---0---0---------

いかがでしょう?ちなみにハイGです。

442 :壁に耳あり、障子にメアリーさん:03/11/29 20:00
って言うか人居ないっすねぇ・・・さびしいです。
i thinkとウクレレやったりしたものですが、なんもコメント無くてそれも寂しかったり。

ということで(?)現在林檎のコピーなどに精を出したりしていて・・・林檎姉さんのは
結構むずかしめの多いですよねぇ・・・難易度は中の上くらいでしょうか?そこまで行かないかな?
しばらくは浮気のほうを勤しみます。

443 :壁に耳あり、障子にメアリーさん:03/12/02 22:54
技術的にROMにならざるを得ないけれど
住んでます。
たまにネタ投下しにきてくださいね。>>442さん

444 :壁に耳あり、障子にメアリーさん:03/12/04 23:50
>>435
デッドストックさびはA9からだと思う。左のほうでA9をローコードで
アルペジオっぽくやってるようにも聞こえるけどちょっと聞き分けるの無理。
そのあとのちゃちゃっちゃっていうとこはコードはBっぽいんだけど
ギターのF#が妙に目立つ。あとBからなんかコード変わってるようにも
聞こえるけどこれまた聞き取れない。
後蛇足だろうけどピコピコはピッキングハーモニクスだな。
出たり出なかったりしてるけど笑。

445 :壁に耳あり、障子にメアリーさん:03/12/05 00:27
>>434
ムーンマーガレットのギターソロのとこのコード、
G > F > G > F > E7だと思う。
愛をもっとー自由をもっとー

446 :壁に耳あり、障子にメアリーさん:03/12/05 00:40
ついでにムーンマーガレットのさび、左のほうのギター
3フレットバレーのGを抑えつつ、

3|--4---------4----
4|5--545--5--5-545-

見たいの基調に2弦とか5弦とか一緒に弾いてるみたいな感じ。
被害妄想〜 呑み込まれそう〜

447 :壁に耳あり、障子にメアリーさん:03/12/05 01:43
ついでに最後のシークレットの曲のコード取ろうと思ったけど
なんか4和音っぽくってわかんないのでシークレットの頭のA繋がりで
ルースターズカバーのgood dreamsをコピー。

頭はA9 > A でじゃかじゃーじゃーじゃーん

さび、5度コードで A > E > F#(m) D > A > E

Aメロ、左ギター(書く手間馬鹿らしいが)
2|a-------9-------a-------9-------a-------a-------9-------
3|---9-------9-------b-------9-------b-------9-------9----

Bメロ、コードストロークで
ガツーンと D > C#m > Bm > E

Aメロ、右ギター 8分刻み
3|6 4 6 4 7 6 4 4
4|7 6 7 6 7 7 6 6

B'メロ、コードストロークで
ガツーンと D > C#m > Bm > F#m

F#mのとこ左ギターで
1| c
2| a
3|b

ギターソロ未コピー。今度気が向いたときに。


448 :壁に耳あり、障子にメアリーさん:03/12/05 01:45
書き忘れた
Aメロ、右ギター 8分刻み
3|7 6 6 4
4|7 7 6 6
ってなる部分が確かあった

449 :435:03/12/05 15:19
>>444

そっか〜。簡単そうに聞こえてなんかちょっと違うと思ったんだよな・・。
うん。ピッキングハーモニクス出てないねw
また暇になったら色々コピーしてみるか。

450 :壁に耳あり、障子にメアリーさん:03/12/06 02:30
i know youピロスレに張られたらしいんだが見てないので
誰か張ってくれる人いる?

451 :壁に耳あり、障子にメアリーさん:03/12/06 03:30
上のほうのサイトにもあるのだけど俺流fool on the planet
アウイエー
D > Em > G > D

悲しみの
F > FM7 > Am > A/C#
Bb > C > F > F7
Gm > C > F > Dm
Bb > C > Caug

窓の外は
Bb > C > A/C# > Dm>C
Bb > C > C# > C > A

このままずっと
Em > A > Em > A

アウイエー2
G > G7 > G > A
D > B7

ギターソロ
Em > A > D > Bm
G > F#m > G > A

さびのDとEmはなんか微妙。ソロ後のとこ聞くと
明らかにDに9入ってるように聞こえるし、Emもなんかテンション入ってるような。
あとDmとかBmとか出てくるとこもテンション入ってそうなんだよなあ。

452 :壁に耳あり、障子にメアリーさん:03/12/06 03:33
書き忘れましたが上のはヴォリュームコントロールで完全に右に
ふっての右ギターのみ聞いての結果。
いや結果つうか今までも聞いて適当弾いたりしてたけど
今回ちゃんと聞きなおしてのある程度のまじめな作業の結果。


453 :壁に耳あり、障子にメアリーさん:03/12/06 03:37
i know youいまの俺の適当なのと比べたかったけど
張られるの待てないのでちょっと真面目にコードとって見る

454 :壁に耳あり、障子にメアリーさん:03/12/06 03:46
つうか普通に
C > Em/B > Am > F
とかこんなんでいいっぽいな
Amが7入ってたような気がしてたけど気のせいか。
後ちょっとだけひねって F > Fm入るくらいで素直で良さげ


455 :壁に耳あり、障子にメアリーさん:03/12/06 04:15
ついでに左ギター。
Aメロ、C,Am,Fローコードでやって(Fは親指で押さえるFな)のそれぞれ後に
3弦で 0-02-0-20 見たいに入れるとそれっぽい。
Gの後は6弦で3-5-7。

Bメロ、C > Em/B > Am のAmでは
3弦7チョーキング上げて下ろして上げて下ろして3弦5いって4弦7。
その後のFの後もチョーキングのフレーズ。
その後のGの後(必殺チョップのあたり)では

1|--3---5-7-5-3-
2|-3---5--------
3|4---5---7-5-4-
こんなん。
同じタイミングの違うバリエーションで

6|3---5---7-3-5-7
こんなんと

1|--3---5-7-6-5-3
2|-3---5---------
3|4---5---7-6-5-4
こんなんも。

例によってギッターソロは気が向いたらな。

456 :壁に耳あり、障子にメアリーさん:03/12/06 04:22
ごめん
3弦7チョーキング上げて下ろして上げて下ろして3弦5いって4弦7いってさらに3弦5
のまちがい。


457 :壁に耳あり、障子にメアリーさん:03/12/06 04:39
skeleton liarかっこいいなあ誰かコピーしてくれ

458 :壁に耳あり、障子にメアリーさん:03/12/06 04:40
レッサーハムスターもかっこいい特に右

459 :壁に耳あり、障子にメアリーさん:03/12/06 04:57
なんとなく右レッサーっぽくなったので。

2|--8888--8-5-5-65-
3|--9999--9-5-5-54-
4|3----------------

2|--8888--8-5-5-a8-
3|--9999--9-5-5-99-
4|3----------------


460 :壁に耳あり、障子にメアリーさん:03/12/06 14:02
なぁ、おまえら、またすごい人が出てきてくれたが
陸ばっかしてたら前の二の舞だぞ。
ちゃんと自らもコピったりこれはこんなんで良いの?とかやろうぜ。
おんぶにだっこは申し訳ない。


俺はスキル無いから無理っぽいんだけど(つД`)

461 :壁に耳あり、障子にメアリーさん:03/12/06 19:22
あーもしかしたら勘違いされてるかもしれないけど
レッサーかっこいいなあっていってるのもその後なんとなくと書いてるのも
両方俺笑。
酔っててあんまり考えないで書いてるし。
つーか444から459まで一個除いて全部俺笑

462 :壁に耳あり、障子にメアリーさん:03/12/06 20:46
お詫びといってなんですがレッサーハムスターのギターソロコピーしてみました。
バッキングよりこっちのがまだ簡単そうだったし笑。
つーかコピーの時間と書く時間おんなじくらいかかるよ。

s:スライド sd:スライドダウン v:ビブラート
hp:ヒットポイント c:チョーキング cd:チョーキングダウン

1|-(s)a-aa------
2|-(s)a-aa-d----
3|--------9(sd)

--------------------(hp)-------
3|55-5(v)-----------4544-------
4|--7-------------------7-5(sd)

--------(s)-------------------
3|----------------4---5---7---
4|----------57-57-------------
5|-----3-57-------------------
6|5-3-5------------------------

----------------------------(hp)--(c)-(cd)-------------
1|----------------------f-d-cdcc----f-f----------------
2|-----8a-d-d(v)(sd)---c---------fdf---fd-d-d---c-a-8-6
3|(s)9----------------d------------------e-------------

-----(s)s)--(c)-------
2|-----8-dfd-f-d-d(v)-
3|-5759-e-------e-----
4|7-------------------


463 :壁に耳あり、障子にメアリーさん:03/12/06 20:49
括弧ずれやがった
訂正

1|-(s)a-aa------
2|-(s)a-aa-d----
3|-----------9(sd)



464 :壁に耳あり、障子にメアリーさん:03/12/06 22:07
>>460の言うとおりだよね。。。
ギターもたいして弾けないし、
音楽の知識も無いオレだが、
雑誌の付録のコード表を見ながら
そんな風〜を必死に耳コピしてみたんです・・・
すっげー迷ったけど晒してみまふ。。。
違うところ(だらけか!?)ご指摘下さい(;´д`)

聞こえても〜
F>G >C 
F>G>C

今にも〜
Dm >Em >F>G>C
Dm >Em >F>G>Am

誰に何を〜
F>G>C
Dm>G>C>C7

寂しくても〜
Dm>E>Am

そんな風に〜
F>G>C

(どんな風に書けばいいのかわからんっっ)

465 :壁に耳あり、障子にメアリーさん:03/12/07 06:39
ういー俺もコピーしてみた。こーれーは難しい。
2時間とかかったまじで。こんな時間なのにすげえ一生懸命やった。
酔いなんか欠片ものこってねえ。
長いのでコードは次に。こっちは与太話な。

えーと環境は左ギターのッチャッチャってやつを拾ってのコードです。
右はまったく聞いてません。
そのせいかAm7add11とか分けわかんないのでてきてるけど
音拾えるだけ拾って組み合してみたらそういうのになったんだしょうがないんだ。
あとFは5フレのDm押さえて1から4弦弾くFでそれっぽいかも。
>>464
良いんじゃないでしょうか。C7とか出てきてそれっぽいし(俺はそこAにしてるけど)
俺C7とか4和音のコードなんて使えるようになったの昨日今日のことですよ。
つーか今でも5度コードで9割すむようなギターばっか。
ただAメロのFはどうなんだろう。素直にベース拾えばDmのような。いや俺の主観だけど。


466 :壁に耳あり、障子にメアリーさん:03/12/07 06:40
イントロ
Dm7 > G > CM7 > Am

イントロ最後
Dm7 > G > Am7add11

聞こえても
Dm7 > G > CM7 > A

いまにも
Dm7 > Em7
F > G > CM7 > C7

声はー
Dm7 > Em7
F > G > Am

誰に
F > G > CM7
Dm7 > G > CM7 > A

寂しくても
Dm7 > E > Am > D
F > G > Am7add11


467 :壁に耳あり、障子にメアリーさん:03/12/07 22:35
すごい人が現れたようなので、トリップダンサーソロ貼ってみます。

                     ↓7→9スライド          ↓9→bスライド ↓最初のa→cスライド
1|--------|--------|--------|---------|--------|-------|---------|--a-c-ee-|
2|--------|--------|--------|---------|-------a|-aaaa98|7-------a|ac-c-c---|
3|--------|--------|--------|---------|-797b-7b|-bbbba9|7--7979b-|---------|
4|7754-54-|-------4|7754-54-|--------7|9-------|-------|--9------|---------|
5|-------5|-----45-|-------5|-7547579-|--------|-------|---------|---------|

468 :壁に耳あり、障子にメアリーさん:03/12/08 02:50
>>467
頭は普通にピック一回で7-54に聞こえる。
その後上るとこもちと違う感じ。
あと3弦7>bはチョーキングかなあ。
俺風にするとこう。

------------------------------------------(c)-
3|--------|--------|--------|---------|-7979-7
4|7-54-54-|------45|7-54-54-|--------7|9------
5|-------5|-----5--|-------5|-7547579-|-------


469 :壁に耳あり、障子にメアリーさん:03/12/08 02:51
うわずれまくり。cは最後の一個前、9-7の9に掛かる

470 :壁に耳あり、障子にメアリーさん:03/12/08 03:02
気が向いたので>>447 good greamsのギターソロ、
つーかアウトロ。

1|--c-9-c-|--------|--9-----|----a9--
2|a-------|9--9a-9-|a---a---|9--9--ca
3|9-------|9-------|b-----b-|9-------
4|--------|--------|--------|--------

1|--------|--------|--------|----c---|9-------
2|--a---a-|------9-|c-9-c-9-|c---9---|a-------
3|---b----|----9---|9---9---|9---9---|9-------
4|c---c---|7-b-----|--------|--------|--------

一番最後の9a9(Aメジャー)はこれ2回繰り返した最後のみ。


471 :壁に耳あり、障子にメアリーさん:03/12/08 22:00
僕はかけら、Aメロコードとってみた
A > Bm > D > A > Bm > C#m > F#m > E
A > Bm > D > A > Bm > C#m > F#m

こんな感じでいいだろうか。

472 :壁に耳あり、障子にメアリーさん:03/12/09 03:24
あーやっぱskeleton liarめっちゃくちゃカッコいいや。
次これコピーしよ。

473 :壁に耳あり、障子にメアリーさん:03/12/11 18:30
かけらのイントロ
・・・本当はソロのはずが断念 _| ̄|○

3|6--s6--s666---6-
4|-----------979--

2|-----------------75h7p5----
3|s666---6--6c----7------55--
4|----979-----99-7-----------
5|--------------5------------

474 :壁に耳あり、障子にメアリーさん:03/12/12 21:07
---------------HCCD----------5H--------
2|---------------------------775-------
3|S6664-46V--666--4--44----7----66SD---
4|-----7-----------------7-------------
5|---------------------5---------------

3|S44-4-4-46646-6466746-4-----467S9-7SD
4|---7---7-------------7-67467---------

--------------+10F--HP-----------------
2|---9-a9acV--S7-5-454-----7-----------
3|Sb------------------6646C------------

1|---4S------------------------7-7-----
2|-----------------7C7C7CD-------------
3|-------466CD4-46--------4646C---6D4-4
4|22---46------6---------------------6-
5|--426--------------------------------

>>473
かけらソロっす。
好みからポジションはずらした。あとHPのあとの3弦55のとこは6だと思う。
小文字アルファベットは10以上のフレット。ただ途中からハイポジション続くので
1の位のみ書いてるので+10F換算で。大文字アルファベットは奏法。
書いては見たもののpillowsの中では忙しいほうのソロなので見ても読みとれるかどうか。

475 :壁に耳あり、障子にメアリーさん:03/12/12 22:14
>>474

アウトロ。
1|99aa-997-799-77--aa-caa-99-a-99
2|aaaa-aa7-777-77--aa-aaa-aa-a-aa
3|9999-997-777-77Sbbb-bbb-99-9-99

1|7-9-97-9-a-a9------------------
2|7-7-77-9-9-99-------5--5-------
3|7-7-77-9-9-99--2424C-4C-D2-2-4-
4|--------------4-----------4----

1|99aa-997-799-77--aa-caa-99-a-99
2|aaaa-aa7-777-77--aa-aaa-aa-a-aa
3|9999-997-777-77Sbbb-bbb-99-9-99

1|7-9-97-9-a-a9-5----------5----------------------------------
2|7-7-77-9-9-99-5----------5-----------------------------8---S
3|7-7-77-9-9-99-7C--7C-----C7---7---5---6----------------6---S
4|--------------------------------------7----------------7---S
5|--------------------------------------7--------------------
6|--------------------------------------5--------------------


476 :壁に耳あり、障子にメアリーさん:03/12/12 22:30
>>475

コード。

なにが
A > Bm > D > A > Bm > Cm7 > F#m > E
A > Bm > D > A > Bm > Cm7 > F#m > F#m7

大きな
E>Esus4>E> F#m
D > A>Asus4>A
E>Esus4>E> F#m
D > E>Esus4E

i am a
Bm > D > A>Asus4>A


A > Bm > D > A > Bm > Cm7 > F#m > E
A > Bm > D > A > Bm > Cm7 > A > A7


477 :壁に耳あり、障子にメアリーさん:03/12/12 22:36
skeleton liarはすっげえいい曲なんだけど
弾くのにはそんな楽しくなくって難航。いつか終わったら書くわ。
逆にかけらは弾くのかなり楽しい。曲もすげえいいし。


478 :壁に耳あり、障子にメアリーさん:03/12/12 22:41
つぎはi know youもっとちゃんとやろうかなあ。
それとも不意ついてストレンジカメレオンでもやろうかしら。


479 :壁に耳あり、障子にメアリーさん:03/12/12 22:49
だれかベースやるひとはいないもんなのか。
pillowsはベース埋もれ気味だし動くし意外と面倒なんだよな。
余談だがpillowsは古いアルバムほど音の分離悪いつくりなきがするよ。


480 :壁に耳あり、障子にメアリーさん:03/12/12 23:11
俺の耳が音痴なだけなのかもしれないけど
>>476のCm7ってC#m7じゃないのかな?
>>471もC#mって言ってるし。

481 :442:03/12/12 23:12
ritでスライド スタッカート&フェルマータ
1|----------N-------LJLJI875-78I--7------3--
2|----------------------------------------86-43----

ごめんなさい、ぴろうずカンケイナイデス。
実はピロウズ熱が冷めてしまっていたみたいで・・・
新しいアルバムもあまり好きになれないので熱がまた上がるまで暫くお休みいたします。

ラプソディinブルーです。

482 :壁に耳あり、障子にメアリーさん:03/12/12 23:14
>>480

一欠けらの弁解の余地もなくC#m7です笑。


483 : ◆nxLKO.x0kU :03/12/13 14:05
>>319以来、何も書き込みしてなった・・・
なんかここのスレ死んでたみたいだったから&自分だけコピるの面倒だった。
んで他にスゴイ人現れるの待ってた。
で久々に多く人が集まってきたし&まだココ見てるってアピールも含めて・・・

『skeleton liar』(ライジングサン映像より)

4|b↓---b-s9--7--97-------------------------
5|----------------------s7↓77777777777s5---

3|------------9-↑↓7-6-4-----------------
4|b↓---b-s9--------------7↓777777745s7--

2|-----7--------7--------7----------------a-c
3|--5s7-7s6s7s67-7s6s7s67-7s66-s4-s6-s44sb-b-
4|-4--------------------------7-s5-s7--------
5|5------------------------------------------

1|-------------------------------ccccccc
2|e-↑↓c---e-↑↓c-cccccfffeee--f↑fffffff
3|-------e---------ee----------------------

↑とか↓はチョーキングの方向
おかげでズレまくってるので、あとはコピーする人の感性でヨロシク。

484 :壁に耳あり、障子にメアリーさん:03/12/16 20:16
インスタントミュージックのコードわかる人いる??
いたらお願いします

485 :壁に耳あり、障子にメアリーさん:03/12/17 19:01
>>484
GとCとDを適当に組み合わせてたらそのうちできるはず。
それと、耳コピした曲はどっかにメモっておくと良いよ。後で役立つことが多い。

486 :壁に耳あり、障子にメアリーさん:03/12/17 19:56
>>485
ども。耳コピはじめてなんだけど頑張ってみる

487 :壁に耳あり、障子にメアリーさん:03/12/22 12:25
ハイブリ講座で、Peeちゃんがムスタングにセロテープ貼ってるっていってたけど
なんでか教えてください

488 :壁に耳あり、障子にメアリーさん:03/12/22 12:37
演奏中にスイッチ切り替えちゃって
音が出なくなったり変わったりしたらダメだからでない?
ムスの仕様調べれば納得するかと

489 :壁に耳あり、障子にメアリーさん:03/12/22 16:28
Sick Vibration
サワオ

 C# D(オクターブ、でもなんか違うぽ)

このまま〜
 F#m
までしか分からない。
てかpeeちゃん何となく分かるけど短音でしか分からないし。
swanky streetのソロやってみたけど全然わからないし。(つД`)

490 :壁に耳あり、障子にメアリーさん:03/12/23 05:12
スワンキーのソロ、コピーできたけど楽譜に直せない・・・
16分多くてめんどうなのが主な理由。

491 :壁に耳あり、障子にメアリーさん:03/12/25 11:39
今日これからフェンジャパのムスタング買いに逝ってきまつ

492 :壁に耳あり、障子にメアリーさん:03/12/25 14:27
白夏のpeeちゃんソロの音を出そうと思うと
どのエフェクターが必要になるのかわかる人居ますか?

493 :壁に耳あり、障子にメアリーさん:03/12/25 14:54
>>492
>>391のやつ一式とオレンジアンプとムスタング買ってきて研究しる。

494 :壁に耳あり、障子にメアリーさん:03/12/26 08:27
デイドリームとかタイニーとかのpeeちゃんのギターの音すごい好きだ。
これってESPレスポールだっけ?


495 :484:03/12/26 18:41
インスタントミュージック、耳コピ頑張ってみたけど
゛世界じゅうに溢れ゛のところがさっぱりわからん(つД`)
ギター初心者&耳コピ初心者な漏れ、、、、
知っている人だれかお願いしまつ

496 :壁に耳あり、障子にメアリーさん:03/12/26 20:48
ギターを買おうと思っているんですが、どれを買ったらいいですかね?

497 :( ´∀`) ◆nxLKO.x0kU :03/12/27 02:16
>>484>>495
「インスタントミュジック」
C(D) D(E)
「世界中に溢れ 子供達は溺れてる」
G(A) C(D)D(E) G(A)
前にもどっかで書いたような気がするから
過去ログにあったような・・・
ちなみに()の中はLIVEバージョン。
音が1つ上がってる。
リードじゃなくってコード(さわお)だけでよかったんかな?

498 :485:03/12/27 13:47
そういや、ライブだとキー上がってたね。知ってたけど忘れてた。
でもAメロとかできたんならCD音源のキーでよかったのかな。
それと忘れてたついでにもう一つ。ソロ前、G、E、F、D、D♯、F
曲終わり、G、E、F、D、D♯、F、G、E、F、D、D♯、F、G。多分全部パワーコード。
ライブでキー上げるのはこのフレーズを弾くためなのかも。

499 :壁に耳あり、障子にメアリーさん :04/01/03 14:19
おい、藻舞ら。このスレに出入してる香具師でオフ会しないかい?
全部ピロの曲でスタジオ借りてセッションするとか。
もちろん初心者大歓迎でw
だれか、この話に乗ってきてくれ〜。

余談だが、ベースはtripがものすごく難しくないか?
漏れは、ベースはほとんど初心者状態なのでお手上げだ。

そういや、ココってギターとかベースとかウクレレとか・・・弦楽器ばかりで
ドラムはミミコピ必要では内科医?
正直、ギターとかより難易度はかなり低いが。。。。



500 :壁に耳あり、障子にメアリーさん:04/01/03 20:00
じゃあドラムは>499が適任だな。
簡単なんだろ?

501 :壁に耳あり、障子にメアリーさん:04/01/03 20:17
>>499
神奈川なら行きたい

502 :壁に耳あり、障子にメアリーさん:04/01/03 22:05
オレ、ベース色々耳コピとコードでやってる。でも、CDの音が聞き取りにくくて完全再現は無理っぽい…

>>499
オレ、鹿児島だからなぁ…

503 :壁に耳あり、障子にメアリーさん:04/01/04 06:01
あけましておめでd
俺は神戸在住です

504 :壁に耳あり、障子にメアリーさん:04/01/04 21:19
あけすぎました。おめでd。
漏れは栃木です。
東京(都心部)までなら行けますが・・・・・・
仕事があるので、日曜日ONLYです。

提案だが、各地方ごとにやるってのは?
東京来られる人と、大阪近辺の人と。
とりあえずこの2箇所は出来そうだね。
出来ればこの輪を北海道、東北、北陸、名古屋、四国、岡山、九州と広げられたらw

505 :504:04/01/04 21:27
ついでにやる曲も決めましょう
ココ見た感じだと、皆が皆上級者ではなさそうなので、
例えばだが、リトバスとかならすぐ出来そうなので、漏れはこの曲をPUSHします!!

お勧めがあったら是非PUSHしてくだされ。

506 :壁に耳あり、障子にメアリーさん:04/01/04 21:43
漏れは神奈川です。
初心者&リアル工房ですが…


RUSH、やってみたら簡単でしたよ

507 :壁に耳あり、障子にメアリーさん:04/01/04 22:04
俺は三重県です。受験生なので今年は無理…。

508 :壁に耳あり、障子にメアリーさん:04/01/04 22:27
ライドンが簡単でないかい?

509 :壁に耳あり、障子にメアリーさん:04/01/05 00:42
リア工神奈川です。
せっかくDVDに講座が収録されてるんだから
ハイブリなんかどうですかね。

510 :壁に耳あり、障子にメアリーさん:04/01/05 02:37
神戸

初心者歓迎なら各パートの意見は必要かも、
ギターが比較的簡単コピーしやすくても、
ベースとドラムがコピーしやすいとは限らないだろうし。
とりあえず映像で確認できるハイブリには一票。

511 :壁に耳あり、障子にメアリーさん:04/01/05 14:42
東京、高三。
自分としては、ハイブリ、RUSH、バスターズ、インスタントミュージック
辺りが一番妥当な所かと思います。
因みに担当はドラムです。

512 :壁に耳あり、障子にメアリーさん:04/01/05 21:15
楽しそうな事始まってるじゃないっすか!
当方都民の超へぼギターです。観戦だけでも価値ありそうだ。
>>499は氏>>504氏?
>>501神奈川 >>504栃木 >>506神奈川 >>509神奈川 >>511東京
と、関東組はがっつりできそうですね。
リトバス一票。歌もみんなで歌えて盛り上がれるし。
ちなみにキーならギターよりはへぼじゃない。。。
シークレットスローガンとか?w

513 :壁に耳あり、障子にメアリーさん:04/01/05 21:40
当方、神奈川の高2です。
ギター歴1年・ドラム歴3年・ピアノ歴9年です。
ピロウズにkeyあんまないから、ドラムかギターで。


514 :壁に耳あり、障子にメアリーさん:04/01/06 00:04
東京在住です。ギターで参加したいです。
普段はパンクやってるので、ルーキーくらいなら。
DVD見て研究したハイブリなら何とか間奏でます。

515 :壁に耳あり、障子にメアリーさん:04/01/06 01:56
このスレ、意外と年齢層若かったのか。俺なんてもう22だよ。

516 :壁に耳あり、障子にメアリーさん:04/01/06 02:10
オレ18歳でつ

517 :壁に耳あり、障子にメアリーさん:04/01/06 06:59
おれ32だよ…

518 :壁に耳あり、障子にメアリーさん:04/01/06 11:35
ま、まあ年の話はティーンに任せとこうぜ・・・(汗

519 :壁に耳あり、障子にメアリーさん:04/01/06 17:54
とりあえず鹿児島の人間がいてびっくりしたと。
去年のライブでは五十人ぐらいしか集まってなかったのに。


520 :壁に耳あり、障子にメアリーさん:04/01/06 19:48
>>519
そんなに少なかったから今回のツアーは来ないのかな?
去年行けなかったから今回は絶対行きたかったのに…

521 :壁に耳あり、障子にメアリーさん:04/01/06 22:23
東京のドラマーはもう余っているようだな。






歳も二十代後半だしな…。


522 :壁に耳あり、障子にメアリーさん :04/01/06 22:31
やっぱりドラマーって稀少なのね。
うちのバンドもドラムいなくて打ち込みでやってる。

523 :壁に耳あり、障子にメアリーさん:04/01/06 22:50
>>521
そんな事言ったらギターなんか余りまくり。
年はみんな35って事で。

524 :504:04/01/07 00:14
ども。504=499ってばれちゃいましたかw
なんだか一部でひどいとられようだったので別人になりたかったんだよYO!!
まぁ実際、みんながコピーできないって言ってるのって大抵ギターなんだろうなって思っただけで。

そんなわけで漏れはドラム希望です。就職活動などで2年近く叩いてないから
よく体を解しておきますwあまり期待しないで下さい(殴!!)

ところで昨日久しぶりにシングルサイズのCD漁ってたら、
ninyとか、beautiful pictureとかやりたいなぁーと思った次第であります。
(ninyはすぐ出来そうだと思った。)
ギターの方にお聞きしたいのですが、beautiful pictureって難しいですか??



525 :壁に耳あり、障子にメアリーさん:04/01/07 00:20
>>Beautifu Picture
ちょこっとだけやってみましたが
イントロらへんはわりと簡単にできましたよ

526 :壁に耳あり、障子にメアリーさん:04/01/07 00:30
ギターはともかくとして、
ドラムは>>511 >>513 >>521と、>>504で関東に
四人もいるのか。

ベースが少ないのはやっぱりピロスレだからか。(w

527 :壁に耳あり、障子にメアリーさん:04/01/07 01:27
Vo以外全部募集。もとい参加希望です。俺も神奈川です。
楽器はギターかベース、でもやっぱりギター希望かなあ。
腕は全然で必死にがんばれば大体の曲はコピーできるかなくらい。

曲は折角ギターも沢山いそうだしPillowsだし左右が判りやすく分かれてるのがいいな。
たとえばハイブリッドレインボウみたいなの。

>>Beautifu Picture

俺基準では結構難しいかなあ。右のアコギは弾くのは簡単だけど
コードが複雑でコピーが難しそうだし
左はバッキングはそれほどだけどギターソロが雰囲気出さないといけないから難しそう。
あとこの曲ベースがかなり重要だとおもうんだけどこの音フレットレスのような?
いやまあもちろんフレッテッドでもいいとおもうけど。
なにより雰囲気が大切な曲だとおもうので初顔合わせでやるにはきついかなという印象です。


528 :壁に耳あり、障子にメアリーさん:04/01/07 01:31
とかって書いたけどなんか一人考えすぎな気がしてきた。
やってみてぐだぐだでもそれはそれで楽しめりゃいいね。
というわけで難点はアコギのコードとエレキのソロの耳コピかな。


529 :壁に耳あり、障子にメアリーさん:04/01/07 02:33
>504
や、こっちこそ断定しちゃってすんまそ。タイプミスしてるし。
すんまそついでに言っちまえばここ最近の神の方ですか?
そして、煽り(て程でも無いと思うけど)(゚ε゚)キニシナイ!!

>>501神奈川(県内なら) >>504栃木(上京上等) >>506神奈川リア工初心者
>>509神奈川リア工 >>511東京高三D >>512東京へぼG >>513神奈川高二DorG
>>514東京パンクス >>521東京20代D >>527神奈川考えすぎGorB

530 :504言いだしっぺ:04/01/07 23:20
どうも。
そうですか。やはりビューティフォーはセッションとしては難しいですか。
ところで、やるのであれば決めなきゃならぬことが沢山あるなぁ・・・・・・
まず、
日時、使うスタジオ、集合場所、曲目、演奏者割振り?(余裕があれば自分の担当曲以外も覚える)
ですかな。
自分としては、曲目がある程度挙がってから日時や場所を決めたほうが良いと思います。
それからVOとか、興味があるだけとかでも良いので、まだまだ参加してみたい人はカキコして欲しい!!!

☆現在挙がっている曲目☆
ハイブリ、RUSH、リトバス、インスタントミュージック、ライドン、
シークレットスローガン、niny、beautiful picture、

>>529
自分はここ最近の神ではないです。
何せ>>499が初カキコなもんでw

昨日布団の上でバタバタ空想ドラムを久しぶりにしてみたけれど・・・・・・
昔のようには逝かぬ(―0―;)ウワーン、ムカシハアルバムガデルタビヒトリピロウズシテタノニー!!!
おまけに右足の技術回復がもっと心配になってきた(つД`)
んま、やるしかないっす!!!!!!


531 :壁に耳あり、障子にメアリーさん:04/01/08 03:27
曲なんて演るメンバー決まってからだろ。
多分このまま曲名あげていっても、間延びするだけ。

532 :壁に耳あり、障子にメアリーさん :04/01/08 11:17
とりあえず、日時と場所から決めて行った方が良さそうだね。
集合場所は、スタジオ集合でいいんじゃない?
パートは何人いても自分ができる曲で入れ代わり立ち代わりでいいよね?

533 :壁に耳あり、障子にメアリーさん:04/01/08 15:51
東京 25才
ギター希望 初心者ですが(半年くらい、耳コピとかまだちゃんとやったことはないです)
ハイブリ講座は見てます。さわおパートしかできませんが、日時が合えば参加したいです。

534 :壁に耳あり、障子にメアリーさん:04/01/08 16:23
当方、横浜在住21歳。
さわおパート、というよりコードくらいしか弾けませんが参加希望。

1年くらい前にVo.&Gu.でライブしますた。
そのときにやった曲は、
ハイブリ、インスタントミュージック、ライドン、スケルトン
バビロン、リトバス、3Q、カーニバル

あと、この辺の曲も練習した記憶が…。
シークレットスローガン、Fool、ComeDown

535 :壁に耳あり、障子にメアリーさん :04/01/08 17:20
新宿のJAMスタなんてどう?安いけど。
http://www.rinkydinkstudio.com/title.html

536 :壁に耳あり、障子にメアリーさん:04/01/08 22:21
イベントとして面白いのはさわおが出た映画で使われてたスタジオとか。

537 :壁に耳あり、障子にメアリーさん:04/01/08 23:34
ところで関西は無しですか?今のところ2人だけ?

538 :007 ◆3mphXPGXqQ :04/01/09 00:43
こんばんわ。だいぶ久しぶりにのぞいたのですが、
スタジオOFF楽しそう・w・
ちなみにワタクシは関西です。人数集まればやってみたいですねぇ


539 :壁に耳あり、障子にメアリー:04/01/09 15:18
楽しそう!
ピアノしかできないんだけど見てるだけでいいので行っちゃ駄目?

540 :壁に耳あり、障子にメアリー:04/01/09 16:07
>>539
歌くらいはできるっしょ。カラオケ感覚でさ。

541 :壁に耳あり、障子にメアリーさん:04/01/09 16:25
鹿児島の方は居ないものか…居ればうちのバンド全員で行くのに…

542 :527:04/01/09 19:35
決めなきゃいけないことはあるのは理解しつつまた曲の話笑。
たぶん少数派なんだろうけどFool on the planetに入ってるようないかにもPillowsという感じの曲よりもどうもPenalty lifeの曲全般が
なぜかぴんと来るというかやってみたい度数が高い。左右が分かれてるという所のせいか音がすっきりしてて聞きやすいせいか
ただ新しくいから記憶が新しいせいか。
でやりたい曲が少数派とおもわれるので先に耳コピして発表し気勢を取るという作戦を思いつきました。そんな訳でLonesome diamondの右ギター。

イントロ、Aメロ
4|2-S44--
5|3-S5---
6|3-S5---

寂しいね
3|---7-7-7---7-------
4|-------------------
5|--7-------7--------
6|0-------5-----5SD--

サビ
G > Bb > A > D
Em > G > A > D9
Bm > G > A > D
Em > F# > G7

サビの最後 1|11111111

サビのところが超手抜きです。もっときっちりやろうとしたんだけど
Bm > G > A > Dの最後Dは
4|532-
5|333-
6|222-
こんなだろうかとかあるんだけどとにかくコードの和音の耳コピは難しい過ぎる。
とりあえずはここまでで。その内できたらもっと細かく。つーかベースいないの?笑

543 :壁に耳あり、障子にメアリーさん:04/01/09 19:38
あーごめん
4|532-
5|333-
6|222-
は123の間違い。さらに4弦開放もだな。

1|532-
2|333-
3|222-
4|000-

544 :513:04/01/09 20:53
>>542-543
サンクスです。

スタジオOFF楽しみですね。いっぱい練習しておかねば。


545 :504言いだしっぺ:04/01/09 21:53
>>531
うわー、そうか。間延びしちゃうねこんなことしてると!!
んでも、何曲かは決めておかないとセッションする相手が居ないかもしれないし・・・。
あと、練習期間が皆さんどれくらい欲しいのか・・・
学生の方は大学のスタジオとかいつでも使えるだろうから短くても良いんだろうけど、
社会人も結構いるようだし、自分は身が解れてないので2週間でもギリギリかなぁ。
>>539
どうぞどうぞ・・・・・・ってまだこんなあわただしい状態ですがw
>>535
場所としても、八王子以外なら何処でもよさそう。栃木、神奈川からでもOKですな。

大まかな希望日(平日、土日祝、何月何日)など、参加希望の方ご意見をください。
すべての方の都合を合わせるのは無理かもしれませんが、よろしくお願いします。
そして、決定次第>>535のスタジオと連絡を取ってみます。

546 :513:04/01/09 22:00
ロンサムが出てきたんで便乗。
イントロ。


                  ×1→    ×2→
1|----------------------|----------|-787----
2|87--a---87----787--a--|-787------|-----a--
3|--7-------7------7----|-----7----|-------- 

初うpなんですが、修正よろ

547 :壁に耳あり、障子にメアリーさん:04/01/09 23:07
>>535のスタジオ、吉祥寺なら使ってます。
部屋たくさんあるし(1スタと5スタしか
使ったことないですけど)音もまあまあですよ。

548 :壁に耳あり、障子にメアリーさん:04/01/10 00:47
まあそんなに急がなくてもいいべさ。
春の方がみんな一段落するだろうし。
ペナルティの曲もコピってみようよ。

549 :519:04/01/10 01:22
僕も鹿児島ですけど九州合同でやった方が可能性があるかな、と。
九州の方はいませんか?


550 :壁に耳あり、障子にメアリーさん :04/01/10 01:37
>>490
あなたのような人を待ってました。いつか教えて下さい。
いつも途中からどうにもわからなくなって泣いて挫折してました。
僕らは〜から後もわからないし。なんかカッティングが難しくないですか?

551 :490:04/01/10 08:39
名指しでリクを受けたので頑張ってみました。
作るのに一晩かかったけど、そのわりに内容はいいかげんです。
きちんと楽譜書ける人は偉いよホント。


552 :490:04/01/10 08:39
スワンキーソロ
-|-----------c----|--------ccdp-----|-p--------hc----|---p--p--p--gu--|-p-p---p--gu----|-hp-----hp-----hp--|
1|0---0-0---------|-----------------|----------------|------------a---|----------d-----|-------------------|
2|0---0-0---------|-----------------|----------------|----------------|----------------|232----232----232--|
3|1---1-2----4----|--------442--2---|----------------|----------------|----------------|---2------2------2-|
4|2---2-2---------|-----------4---4-|20--------------|----------------|----------------|-------------------|
5|2---2-0---------|-----------------|--2-0---0-2---0-|--20-20-00------|20--0-20--------|-------------------|
6|0---0-----------|-----------------|------2---------|----------------|--20------------|-------------------|

-|---hp-----hp--------|----------------|----------------|----------------|gu--------------|-hp-------------|
1|--------------------|xx-x-xxxxx-xx-xx|-xx-xx-xx-x-x---|9--9-9-99-a-9-a-|999999-9--------|9a9-------------|
2|--232----232--------|22-x-xxxxx-xx-xx|-xa-xc-xa-9-a---|a--a-a-aa-a-a-a-|aaaaaa-a--c-a-aa|----c--a--9---7-|
3|-----2------2-------|xx-4-x66x7-x9-xb|-xx-xx-xx-x-x---|9--9-9-99-9-9-9-|999999-9--9-9-99|----------------|
4|--------------------|xx-x-xxxxx-xx-xx|-xx-xx-xx-x-x---|----------------|----------------|----------------|
5|--------------------|xx-x-xxxxx-xx-xx|-xx-xx-xx-x-x---|----------------|----------------|----------------|
6|--------------------|xx-x-xxxxx-xx-xx|-xx-xx-xx-x-x---|----------------|----------------|----------------|


553 :続き:04/01/10 08:41
-|---s-------p-hp-|----------------|----------------|----------------|----------------|----------------|
1|----------------|99-9-x99-9-x9999|-999999999999---|----------------|----------------|----------------|
2|----------------|aa-a-xaa-a-xaaaa|-aaaaaaaaaaaa---|--a-----9---7---|----------------|----a-----------|
3|9--7-76-7-76----|99-9-x99-9-x9999|-999999999999---|----------------|9---7---6-------|----------------|
4|------------797-|----------------|--------------7-|----------------|------------9-7-|--7-------------|
5|----------------|----------------|----------------|----------------|----------------|----------------|
6|----------------|----------------|----------------|----------------|----------------|----------------|

一番上の段は演奏記号です。cチョーキング、cdチョークダウン、hcハーフチョーキング、sスライド、
hハンマリング、pプリング、guグリスアップ。適当に付けてるんでCD聞いて聞こえるようにやってください。
勢いで押し切る感じのソロなんで、そのへん適当でもたぶん大丈夫でしょう。僕も適当です。

>>550
僕もこれを初めてやったときはまったく分かりませんでした。泣いて挫折する気持ち、よく分かります。
というか今でもよく分からないんですけどね。完コピは無理です。聞き取れたつもりで弾いてます。


554 :490:04/01/10 08:55
見直したらちょっとずれてるね。でもこのくらいはご容赦を。
あと訂正あったらお願いします。


555 :527:04/01/11 16:33
>>545

確かにあんまりゆっくりでも間延びするとおもうけど
2週間まで急がないでもいいのでは。俺は1ヵ月から2ヵ月後くらいで
丁度いいかなあとおもいます。
そのあたりにまず設定してそれまで
人集め場所決め曲決め耳コピ等進めればいいのではないでしょうか。
なので俺の希望としてはまあ2月末くらい。場所は新宿でかまわないです。

今日の耳コピ。曲はやってのお楽しみ。ミドルテンポ。

0|-----H-------------------
2|3-----0-------110--------
3|--0-02-20-0-0----2-4-242-
4|------------2-----0-00---
5|---------3-33------------

G > B


556 :壁に耳あり、障子にメアリーさん:04/01/11 22:18
1|-------------------------------
2|3-3-7-7-3-3-7-7-8-878a-7--a-8-7
3|----------------9-979b-7-7-----

1|--------------------------e-c--
2|3-3-7-7-878a----c-cacc-f------f
3|----------------c-cccc-e-e-----

日々のうたソロ。俺の好きな曲の一つ。

557 :550:04/01/12 22:24
>>490
わ〜早速ご親切にありがとうございます。
xが続くあたりから、もうお手上げって感じで。
ここらへんの微妙な和音とか。
自分ももうちょっと頑張ってみます。
訂正とかできたら、いつになるかわかりませんがアップしたいです。

558 :壁に耳あり、障子にメアリーさん:04/01/15 21:37
スタジOFFの話はどうなったんだ?

559 :壁に耳あり、障子にメアリーさん:04/01/16 00:34
とりあえず、ペナルティラストあたりを目安にやっぱ曲から決めれば?
課題曲1つ他に余裕ある人用に3,4つ決めとけばいいんじゃにゃい?
斑霓はやりやすそう。個人的にあまり好きな曲じゃなかったりするが(ライブのは好きだけど
リトバスは盛り上がりそう。


560 :527:04/01/16 23:53
では早速俺がやりたいとおもうような曲。

いかにもな曲で好きな曲

fool on the planet、i think i can、one life、カーニバル、ride on shooting star
ストレンジ カメレオン、ハイブリッド レインボウ

いかにもでもないけど好きな曲

back seat dog、advice、レッサーハムスターの憂鬱、subhuman
日々のうた、smile、lonesome diamond

曲数はどれくらいにすべきだろうね。10位?多いい?

関係ないのだけど最近新しくギター買ったんだけどいままで使ってた奴は
フレット削れててもうまともな音程でなかったんだけど
こんどのはばっちり合うし弾きやすいしいい音するしで非常に気に入ってんだけど
それで弾いてたらSkeleton liarって音程#してんね。なんか合わないとおもったんだ。


561 :壁に耳あり、障子にメアリーさん:04/01/17 00:52
>501神奈川(県内なら) >504栃木言いだしっぺ(上京上等) >506神奈川リア工初心者
>509神奈川リア工 >511東京高三D >512東京へぼG >513神奈川高二DorG
>514東京パンクス >521東京20代D >527神奈川考えすぎGorB
>533東京25歳ギター初心者 >534横浜21歳ギター

こう見ると>527氏には是非ベースを持ってきて欲しい罠・・・


562 :壁に耳あり、障子にメアリーさん:04/01/17 10:27
北海道人なんで横から見てるだけですが
Voにすごい自信があるって人ならVoオンリーの参戦とかも許してみては?

563 :壁に耳あり、障子にメアリーさん:04/01/17 13:25
おいおい、ボーカルなんてみんなできるじゃん。 さわおだって歌唱力に「すごい自信」あるとも思えないし。w

564 :壁に耳あり、障子にメアリーさん :04/01/17 21:17
個人的にONE LIFEとパトリシアも良いと思う


565 :504言いだしっぺ:04/01/17 22:10
☆現在挙がっている曲目☆
ストレンジ カメレオン、
little busters、ハイブリッド レインボウ、one life、パトリシア
fool on the planet、i think i can、ride on shooting star
インスタントミュージック
RUSH、back seat dog、advice、カーニバル
シークレットスローガン、
smile、日々のうた、
レッサーハムスターの憂鬱、niny、beautiful picture、subhuman

★以下ペナルティーライフの曲目★
Dead Stock Paradise
ロンサムダイヤモンド
Freebee Honey
ターミナル・ヘヴンズ・ロック
昇らない太陽
ファントムペイン
I know you
ムーンマーガレット
スーパートランポリン スクールキッド
モールタウン プリズナー
傷跡の囁き 誰もいないパラダイス


566 :504言いだしっぺ:04/01/17 22:12
ども>>504です。
最近、ずっと残業等忙しくておろそかになり、すみませぬ。
明日にでも例のスタジヲ(新宿)にTELします。

スレに挙がってただけで31曲もある!!もう多すぎなので曲は受付終了!!
むしろ減らしたほうがいいかも。
今の感じだとoff参加ほぼ確定は10人前後なんで31曲は・・・(汗)

ペナルティーからの曲を3曲に絞って、他7曲位でどうでしょう。
7曲のうち、ハイブリとリトバスは賛成意見が多いようなので決定!!!
残り5曲を上に挙がっている中から選んで欲しいのですが、
ダラダラしないためにも、強力PUSHとでも書いていただければ先着順でw
同じくペナルティーライフの曲も3曲決めたいので強力PUSHで先着順w
(ただし、これは出来ないだろうという曲は候補からなるべく落としてください)


567 :壁に耳あり、障子にメアリーさん:04/01/17 23:05
俺は>>562ではないが、と前置きしつつ。

>>563
歌のことにほとんど触れてないのも
問題じゃないんかと。

歌唱力はともかく、キー厳しいのもけっこう
あると思うぞ。
そのへんは曲リスト作る段階でどうせ
問題になるだろうけど。

568 :壁に耳あり、障子にメアリーさん:04/01/18 00:22
確かに、キーは高めなのが多いかもね。カラオケと違って原キーでやるから大変かも。
一つの目安としては上のG音(ギターの1弦3フレットの音)が出るかどうかだと思う。

569 :壁に耳あり、障子にメアリーさん:04/01/18 00:25
そっか、男子には高いんだね。
きゃにゅふぃーー が出るかっすか、にゅが。

570 :壁に耳あり、障子にメアリーさん:04/01/18 04:39
曲が決まりそうな所ですみませんが
決定した曲ができないレベルの場合は
参加しない方がよろしいですか?

571 :504言いだしっぺ:04/01/18 15:41
>>570
いやいや、来るだけでも勉強になるし、良いんじゃないですか?
リトバス(必須!!!!!!)とハイブリはやってきたほうが良いと思うけど。
そうこういう自分も昔できてたことも今出来るかどうかわからないし(殴)
自分が出来るレベルの曲をお互いCHOICEして、
ハイブリとリトバスは2回でも3回でも演奏者の組み合わせを変えてやればいいんですよ。

>>567-569
そうですね。VOが大変か〜。VOを募集してないつもりはなかったんだけど。
じゃ、あらためて

★★VO募集中(楽器できなくて全然OK。原曲キーで歌える方希望。)★★

なんなら、自分VOでも良いですよ。割と高いのも低いのも出るし。
・・・・・・って女なんですけど、やはり男性VOが皆さんよろしいのでしょうか?



572 :504言いだしっぺ:04/01/18 18:15
先ほど新宿JAMスタに電話し、10人以上でセッションをやると言ったら
「8畳では狭すぎると思うよ。」と言われました。
新宿・・・A〜Eスタ(すべて8畳)\2000
で、料金と部屋の広さで系列店を調べたら、
  西荻窪・・・Aスタ18畳\2700、Bスタ12畳\2200、Fスタ27畳\3000
  吉祥寺・・・7スタ21畳\2800
  下北沢・・・2・5スタ20畳\2800、3・6スタ16畳\2500
なんです。

私としては、今何人来るか確定していない状態なので、
もし人数が少なかったら・・・ということも考えて予約しなければと思うので、
下北沢の16畳(+\500で新宿の倍の広さ!)が丁度良いかと思いますが、
皆さんの意見を訊きたいのでお願いします。
あと、多少高くても神奈川からの交通の便も考慮したほうがいいので
神奈川の方のレスお待ちしてます。
(栃木からはどのスタジオでも交通の便は同程度なので気にしないで下さいw)

573 :壁に耳あり、障子にメアリーさん:04/01/18 20:01
ttp://www.rockgenya.com/guitars/electric%20guitar/cyclone/cyclone.html
フェンダーメキシコのサイクロン発見しますた、中古だけど


574 :壁に耳あり、障子にメアリーさん :04/01/18 21:34
東京に住んでるものですが、Voいけますよ〜
高校の時にピロウズコピーバンド組んでで
何度かライブハウスでライブしてました
(神戸で一度ピロウズコピーバンドのみライブに参加したことが)
ピロウズなのに3人バンドで、リードギターかつボーカルなんていう
無茶なことをしてました^^;
最近の曲はコードくらいしかコピーしてないけど
昔の曲でライブでしたやつとかならある程度ギターいけます〜
ストレンジ カメレオン、スワンキー
little busters、ハイブリッド レインボウ、one life
fool on the planet、i think i can、ride on shooting star
インスタントミュージック、アナザーモーニング、ジュリエット
RUSH、Sad Sad Kiddie 、ランナーズハイ、Ninny、アドバイス
ブルースドライブモンスータ、スケルトンライヤー
とかライブでしてました。上の曲ならギター引きながら歌えます〜
でも、最近バンド組んでないので不安ですが^^;
ピロウズの曲はたいてい歌えるので、よかったら是非
ギターの腕と歌のうまさについては保証できません^^;

575 :壁に耳あり、障子にメアリーさん:04/01/18 21:46
行きたいなぁ…九州でもぜひやりたい

576 :壁に耳あり、障子にメアリーさん:04/01/18 22:41
>>574
俺は覚えてるぞ!!!
神戸のイベントで凄い腕前だったことを。
関東方面の大学に行った(らしいという噂)ということで
もう神戸のイベントに出てくれなくって寂しくなったけど
みんなの前で披是非とも披露して欲しい。
特にSad Sad Kiddie・スケルトンライヤー・ストレンジカメレオン・スワンキー。
なんか、こんなところでまたお目にかかれるとは思わなかった。
ちなみに俺は君を絶賛して演奏方法を教えてもらいたくて
当時1度だけ直でメール送った者です。

577 :壁に耳あり、障子にメアリーさん:04/01/19 00:18
>>504
すまん参加希望者はなにを書いたらいいのか
もう一度まとめてくれると助かる。

・パート
・参加可能日
・希望曲

最低このくらいだろうと思うが、縛りの条件が
いまいちわからん。

というか、まだその段階じゃないのか?

578 :壁に耳あり、障子にメアリーさん:04/01/19 05:41
504、お疲れちゃん!
そろそろ だいたいの日程&参加募集締切or締切日 を決めたらいいんじゃないかな。
そうすりゃスタジオも決められると思うよ。
個人的には私も参加者10人前後な気がするので下北で良いと思うけど。
下北も新宿も小田急急行で2駅だし、大差ないべ?(都民見解
日程だが、新譜の今からコピったりする曲も追加するなら
ちょっと初心者的には練習期間をおいて頂きたいぽ。。。
>>565からモールタウンやってみたいが、耳コピできるかなあ(遠い眼
つーか、そうこう言ってるウチに当方2月の予定が埋まりつつあり、
2月なら無理ぽ。。。
ってな訳でとりあえず、何か意見を言ってみろ!おまい等!
↓今はこんな感じ?

>504栃木言いだしっぺ(上京上等) >506神奈川リア工初心者
>509神奈川リア工 >511東京高三D >512東京へぼG >513神奈川高二DorG
>514東京パンクス >521東京20代D >527神奈川考えすぎGorB
>533東京25歳ギター初心者 >534横浜21歳ギター >577元神戸人V&G

579 :514:04/01/19 14:41
下北で良いんじゃない?16畳¥1500って安いっすね。
ちょっと参考程度に・・・
この前吉祥寺4スタ入ったら、14畳でかなり広かったです。
ギター:マーシャルJCM900、ハイワット(ヘッドだけ)、JC120
ベース:アンペグ(けっこう新しめだった)
こんなだったと思う。音もわりに良かった。

2月後半あたりに希望。パートはギター(リード)で。
ハイブリ、スワンキー、I think I canだったらできます。


580 :壁に耳あり、障子にメアリーさん:04/01/19 18:34
東京の高1です。
ギター歴半年ちょいのヘタレですが
日程とか都合つけば参加したいです。

581 :壁に耳あり、障子にメアリーさん:04/01/19 22:42
>574
また今年もやるつもりなので
神戸に帰ることがあれば是非参加してくれい!

582 :壁に耳あり、障子にメアリーさん:04/01/20 19:03
俺関西で行けない・・。
雰囲気だけでも味わいたいので録音してぜひupしてください!

583 :504言いだしっぺ:04/01/20 22:07
ども、こんばんは。書き方があいまいですみません。
書きたい事いっぱいあってグシャグシャしてしまった(欝)
ってなわけで>>585にテンプレつくりますw
これをコピって、参加希望の方はレスしてくだされ。
今まで参加希望でレスってた方も、その時のレス番(私で言うと>>504)を名前の一部に採用してくだされ。
新規の参加希望もまだまだ受け付けてますのでよろしく。

584 :504言いだしっぺ:04/01/20 22:08
  ★★★★参加希望テンプレについての説明★★★★

名前は参加希望者を特定するためのものです。実名でなくてもかまいません。
今までに参加希望でレスしている方はその時のレス番(私で言うと>>504)を
名前の一部に採用してください。

パートは希望のものを(1)に、他に演奏可能なものがある場合(2)に書いてください。

希望曲は>>565の中(little busters、hybrid rainbowを除く)から選んでください。
ペナルティー(P・L)から1曲、その他(他)から2曲を選んで書いてください。
最終的にペナルティーから3曲、他から7曲を決定したいと思います。
little bustersとhybrid rainbowは必修曲です。
曲は計10曲が出揃い次第、決定とします。
(ただし、どう考えても技術的に不可能なものはなるべくさけてください。)

参加可能日には希望日、希望曜日、特にない場合でも大まかな希望(2月末など)を書いてください。


585 :504言いだしっぺ:04/01/20 22:09
名前:504言いだしっぺ
パート:(1)ドラム (2)ボーカル
希望曲:(P・L)ターミナルヘブンズロック (他)ONE LIFE パトリシア
参加可能日:2月末〜3月上旬の日曜日

586 :壁に耳あり、障子にメアリーさん:04/01/21 00:55
ペナルティからってまだ共通の耳コピ(ここにうpられてたり)というのが
ほとんどないけど、どうするんですか?
それぞれの耳コピに頼るって事?

587 :508へたれ:04/01/21 01:03
名前:504へたれ
パート:ギター
希望曲:(P・L)かけら(他)果てとカルベロ。
    っと思ったらもう追加だめなので、アドバイス、ラッシュ
参加可能日:2月中〜末または三月中〜末の土日


588 :514:04/01/21 01:45
名前:514吉祥寺パンクス
パート:ギター(Peeちゃんパート)
希望曲:(P・L)ロンサムダイヤモンド (他)I think I can Swanky Street
参加可能日:2月後半〜3月上旬の土日

589 :514:04/01/21 01:49
すみません、付け足し
参加可能日:2月後半〜3月上旬の土日(3/6除く)

590 :521:04/01/21 02:26
名前:521二十代後半初級
パート:ドラム
希望曲:(P・L)ムンマガ (他)ITIC カーニバル
参加可能日:二月中旬以降土日祝

あと、タイミングを完全に逃してしまっているが
3Qから何も入っていないのがもったいないと
思うのでバビロン希望。

591 :527:04/01/21 11:57
名前:527
パート:(1)ギター (2)ベース
希望曲:(P・L)lonesome diamond (他)subhuman i think i can
参加可能日:2月末〜3月半ば 土日

504さんお疲れ。
で俺の希望はギターなんだけどやっぱりベースいないのかね。
いいんだけどまだ半分あきらめれないんだ笑。
だから誰かベース持ってて1,2曲手伝ってくれる人いない?。
耳コピは俺レベルでよければするし。
俺は左利きなのでベース貸せないのでもってて手伝ってくれる人。
たのむよ新しいギター弾かせてくれよ笑。

>>586
ロンサムのリードコピー終わりました。そのうち載せます。
耳コピは曲決まったら当然みんなでやるんじゃない?
このスレッド的にはそれこそ目的なわけだし。


592 :504言いだしっぺ:04/01/21 22:07
>>591
リトバスだけなら弾けますよ(弾けるうちに入らないかもw)
Baも1万2千円のハム太郎モデル(殴)しかもってませんが、それでもよければ持って行きます。
ハイブリは実はDVD持ってないので講座を見れません(;_;)
でも、ただコードを追うだけだったら出来るかも知れないのでやってみます。

・・・・・・っても、リトバスとハイブリは必修なので出来る人は多いか。
この2曲以外でBaが簡単な曲があれば練習するけど。
ほんとにコードそのまんまみたいなのしか弾けないレベルなんで、何かないですかね?

593 :壁に耳あり、障子にメアリーさん:04/01/21 22:23
Wake up Frenzyはベース簡単な方じゃない?コードで充分だし

594 :574:04/01/22 00:06
名前:574元神戸
パート:(1)ボーカル (2)ギター
希望曲:(P・L)モールタウンプリズナー (他)アドバイス Ninny
参加可能日:2月半ば〜3月(上旬は微妙)の土日

ベースも簡単そうな曲を選んでみましたー
ひそかにNinnyはずっとほとんど同じコード進行でいけます

>>576
あの時の方ですかー覚えてます〜
またバンド組んでコピーライブでたいなぁ^^;
神戸に戻った時はよろしくです〜

595 :504言いだしっぺ:04/01/22 17:51
コピー曲の決定は1月28日締め切りにします。
>>584レス以前に参加希望出してた方、改めて届けをお願いします。
詳細は>>583-585です。

>>594
そうですね。そういえばNinnyはコードだけ判ればできますねw
まだ曲は決定していないわけですが練習してみます!!

596 :514:04/01/22 20:41
もし、本当に誰もいないようならうちのベースに練習させましょうか?

597 :527:04/01/24 02:00
わがまま言ってごめんねー。
ただもちろん新しいギター弾きたいのもあるのだけど
俺一人でベース全部だと依存度高くて企画としてのリスク上がると思うのね。
だから最低右用のベースは用意しといたほうがいいとおもう。コード追うだけなら
ギターの人ならまあできるだろうし。
504さんの自慢のハムベースは見ず知らずの人に触らせるのOK?


598 :534:04/01/24 02:27
名前:534横浜21
パート:(1)ボーカル (2)ギター
希望曲:(P・L)ターミナル (他)カーニバル ライドン
参加可能日:2月21,22日、3月中旬以降の土日

ベースほとんど弾いたことないけど、楽器は調達できるから練習した方が良い?
ただ、卒論でいっぱいいっぱいなため、当分練習できなそうな罠
誰か耳コピしてくれ〜

599 :壁に耳あり、障子にメアリーさん:04/01/24 12:57
ムーンマーガレットは途中までまんまラルクのステイアウイェーだな。
練習している人たちのスタジオから音がもれてるの聞いて
おっ、ピロウズやってるって勘違いしちゃったよ。

600 :壁に耳あり、障子にメアリーさん:04/01/24 17:17
ムンマガはオアシスとも同じ。

601 :504言いだしっぺ:04/01/24 21:24
>>514
そうですねぇ・・・・・・本スレでもオフ会について何回かレスしているのに
誰もあらわれないのでこれ以上集まる見込みはない気がします(殴!)
12曲で2人でBaはどう考えてもきついし。自分はDr2〜3曲、Baも2〜3曲が限界です。
でもメンバーさんの都合もあるだろうし。お世話になるようだったら早く曲決めをしなければなりませぬ。
>>597
ハムベースは自慢じゃなくてむしろ恥ずかしいw
知り合いにもらった安物にハム太郎がはってあったので(飛)
pillowsに関係ないですけど、もしかして楽器板の左利きスレに住んでたことあります??
自分も左利きなのであのスレはよく覗いていたのですがw



602 :504言いだしっぺ:04/01/24 22:06
>>598
無理して練習しなくてもいいですよ。そんなに忙しいのであれば。
ハイブリは今耳コピしてますが、ここにあるようなタブ譜をPCでどう書けばいいのかがわからないのでうpできませぬ。
でも、本当にVOが居てくれてよかったw

再び現れてすいませんw
今現在オフ会参加120%の方が7人ってことなので、
あと意思表明してくれても3人位かな。
で、現在希望が出ている曲からさっさと決定します。Baのこともあるしね。

(P・L)モールタウンプリズナー、ターミナルヘブンズロック、ロンサムダイアモンド

(他) I think I can、カーニバル、アドバイス、Ninny

以上、多数決とBaが簡単説より、↑の曲は決定!
あと3曲を以下の曲から選んでください。参加できない方もこれは演奏しやすいんじゃないの?
っていう曲を以下の中から推薦していただければ非常にありがたいです。

ONE LIFE、パトリシア、rush、Swanky Street
subhuman、ride on shooting star

603 :521:04/01/24 23:19
>>504さん、おつかれさまです。

えーと。
>>566ではハイブリとリトバス含めて10曲って
書いてあったけど、>>584からの流れだと、
結局全部含めて全12曲なのかな?

うーん。
どうも段取りが見えてこないっス。

誰がどの曲を練習してくるのか、あらかじめ
決めるんですよね?
だとしたら、曲の最終決定は日程と参加者が
確定してからのほうが良いのでは。
いま参加意思表明してる人が全員参加できるなら
いいですけど、そうでない場合も考えると…。

いまのところ全員参加可能そうな開催日の候補は
2/21か3/14くらいしかないような気が(汗)。

604 :514:04/01/25 00:41
日程ですが、自分は2/21も3/14も今のところ大丈夫です。
2/21は土曜日ですよね。504さんは日曜じゃないとだめなのでは?

>>601
了解です。本人にも一応話だけは通しておきます。

605 :521:04/01/25 10:05
あ、そうか。(-_-;

2/21は2/22の間違いですね。
カレンダー見間違いました。
すみません。

606 :504言いだしっぺ:04/01/25 12:37
>>603
10曲のつもりだったんですが、>>584で書き間違えたことに気がついたので
12曲としました。

>誰がどの曲を練習してくるのか、あらかじめ
>決めるんですよね?
>だとしたら、曲の最終決定は日程と参加者が
>確定してからのほうが良いのでは。
>いま参加意思表明してる人が全員参加できるなら
>いいですけど、そうでない場合も考えると…。

ここですが、もちろん誰がどの曲をやるかは決めます。
そして日程と参加者を確定してから曲は決めます。
・・・・・・んが、Baの都合とペナルティーの曲は早くコピったほうが良いので
という事により、>>602のようにしました。(部分肯定ってこと。)
今の状況では527氏と自分が何曲かBaをやることはほぼ確定
(都合がつけば514氏のメンバーさんも)なので、
希望パートだけの方よりも負担が大きいため
この部分だけ早く取り掛かりたいと思ったのです。
以上のことだけ理解してくだされ。

なので、Baパートだけ別進行のようなかたちで担当を決めていくことになると思います。
Gt、Vo、Drとごちゃごちゃにならないように気をつけてください。

偉そうな文になってしまってごめんなさい。


607 :574:04/01/25 14:33
追加の3曲ですが、Baの簡単さ、合わせやすさから考えて
RUSH ride ONELIFE
を選びます〜

リードギターのコピー、
モールタウンプリズナー、ターミナルヘブンズロック、ロンサムダイアモンド
は自分なりにしてみました。
タブ譜、書ければいいんですが、書き方がちょいわからないのですが
できれば頑張って書いてみたいです^^;

ベースの事ですが、自分はベース持ってないけどコピーはできるので
当日ベースを貸してもらえるならやりますよー
よかったら使ってやってくださいな〜
できるだけコピーしてみます。

608 :壁に耳あり、障子にメアリーさん:04/01/25 15:28
かき方ってそんな大層なものもなくただメモ帳でひたすら書くだけだとおもうが


609 :504言いだしっぺ:04/01/25 18:12
>>607
onelifeは今耳コピ終わりましたw
日常の〜♪あたりが弾ければ出来そうだなと思います。
自分が練習出来そうなのは今のところ
little busters、hybrid rainbow、ninny、one lifeです。

これ以上は出来れば遠慮したいです。
手伝っていただけるなら是非是非お願いします。




610 :521:04/01/25 23:12
> 今の状況では527氏と自分が何曲かBaをやることはほぼ確定
> (都合がつけば514氏のメンバーさんも)なので、
> 希望パートだけの方よりも負担が大きいため
> この部分だけ早く取り掛かりたいと思ったのです。

あうう。
えーと、だからですね。
つまりその話って、お二方が参加できるのが
確定してからでないと意味が無いんじゃないかな、
と思ったんです。

まあ504氏や527氏が不参加ということは実際ありえない
ですけど、他にも現状の面子だと、もし私が参加できない
日になった場合、504氏がベースの曲では今度はドラムが
不在になりますよね?

そういうことも含めて、候補曲はともかく確定曲を
決めるのは面子が確定してからのほうが良いのでは、と。

ぶっちゃけ、504氏が「ベースやります」と宣言した曲を
私がドラムコピーできるかが心配だったんです。(^_^;
>>609の四曲なら、ONE LIFEが怪しいくらいであとはたぶん
大丈夫ですけど。

何か勘違いしてる発言だったらごめんなさい。

611 :521:04/01/25 23:43
いちおう念のため現段階(1/25時点)でのまとめを。敬称略。

Vo:504,574,534
Gu:508,514(Gu1のみ?),527,574,534
Ba:(504),527,(574),(514氏のバンドのベース氏),
Dr:504,521

テンプレで宣言していないパートについては
()を付けました。
ご参考になれば幸いです。

612 :521:04/01/25 23:49
でしゃばりついでに、日程も…。
504氏が日曜のみ可で、他に「日曜がダメ」という方は
おられないようなので、二月後半から三月前半までで
日曜限定とすると、参加可能そうな面子はややゆるめに
みてこんな感じでしょうか。

2/22:504(?),508,514,521,527(?),574,534
2/29:504,508,514,521,527,574
3/7:504,514,521,527,574(?)
3/14:504(?),508,514(?),521,527,574,534

(?)のついているところは正直言って怪しいですが、
実はこれがダメとなると全員参加はすでに不可能に
なってます。
もちろん、「三月以前」にこだわった場合の話ですが…。

希望的観測部分やその他に修正すべき箇所があれば
おねがいします。

613 :514:04/01/26 00:43
ウチのベースから了解もらいました。
ピロウズは、ほぼ初聴きになるとは思いますが
「アドバイス」あたりのような曲はわりとお得意かもです。
皆様何卒よろしくお願いします。

日程に関しては全日程OKです。

残りの候補曲からは、Swanky Streetにとりあえず1票。

614 :504言いだしっぺ:04/01/26 18:58
521氏、サンクスです。
>>611の感じだと、2/22か3/14が良いようですね。
やっぱり2/22だと早すぎて練習が十分じゃない〜
っていう方が居なければ2/22にします。
時間は何時にしましょうか?自分は午後1時から2時間が良いと思ってますが。

>>514
感謝ですw練習しても微妙な曲があるようだったらお願いしたいかも・・・・・・

>>610
ONE LIFE・・・・・・うぅ、本当はあの手のドラムは好きなんですw
叩きたいけど、叩けるけど、Ba次第ですね(殴!)


615 :533:04/01/26 21:36
名前533
パート:ギター
希望曲ONE LIFE、Swanky Street
(参加希望日3/14(練習期間、日程の都合含めて)
へたくそなので練習時間があったほうが、嬉しいです。

616 :527:04/01/26 21:53
2/22 OKです。開始時間も。ただやる時間は2時間で12曲だともしかしたら短いかも?

んで皆さん各自耳コピされてるみたいですがそれ載せてもらえないですか。
前も言ったけどあくまでもここは耳コピが目的のスレッドであってこのイベントは
いっちゃあおまけでじゃあ皆で勝手に耳コピしてスタジオ集まりました、
大成功でした楽しかったね、じゃ、ほかの人怒るとおもう笑。
それにもちろん俺もほかの人がどうコピーしてるのか気になるし。
メモ帳でTAB書くのが嫌ならMIDI作るとか手書きで書いてデジカメとか
実際音録ってUPとか気合で文章で書くとかなんらかの方法で
耳コピ結果を表して欲しいものです。とかって俺も最近あんまり載せてないけど笑。


617 :527:04/01/26 21:57
というわけでいいっぱなしだと怒られるのでmole town prisonerのベース。
ちなみに俺もテキストエディターが嫌になったのでpower tab editorというソフト使用。これなかなか優れもの。
イントロ
E Q E Q E Q E E E Q Q
|----------------|---------------|
|----------------|---------------|
|-4-5--4-5--4-5--|-4-5-7-9--7----|
|----------------|---------------|
Aメロ
E E E E E E E E E E E E E E E E E E E E E E E E E E E E E E E E
||------------------|-----------------|-----------------|-----------------|
||o-----------------|-----------------|-----------------|-----------------|
||o-----------------|-----------------|-----------------|-5-5-5-5-5-5-5-5-|
||--5-5-5-5-5-5-5-5-|-2-2-2-2-2-2-2-2-|-0-0-0-0-0-0-0-0-|-----------------|

E E E E E E E E E E E E E E E E E E E E E E E E E E E E E E Q
|-----------------|-----------------|-----------------|-----------------|
|-----------------|-----------------|-----------------|-----------------|
|-----------------|-----------------|-----------------|-5-5-5-5-5-------|
|-5-5-5-5-5-5-5-5-|-2-2-2-2-2-2-2-2-|-0-0-0-0-0-0-0-0-|-----------0-3---|


618 :527:04/01/26 21:57
mole town prisoner続き

サビ
E E E E E E E E E E E E E E E E E E E E E E E E E E E E E E E E
|-----------------|-----------------|-----------------|------------------|
|-----------------|-----------------|-----------------|------------------|
|-------------7-7-|-9-9-9-9-9-9-9-9-|-7-7-7-7-7-7-7-7-|-5-5-5-5-5-5-5-5--|
|-5-5-5-5-5-5-----|-----------------|-----------------|------------------|

E E E E E E E E E E E E E E E E E Q E Q E Q E E E Q Q
|-----------------|-----------------|----------------|---------------||
|-----------------|-----------------|----------------|--------------o||
|-------------7-7-|-9-9-9-9-9-9-9-9-|-4-5--4-5--4-5--|-4-5-7-9--7---o||
|-5-5-5-5-5-5-----|-----------------|----------------|---------------||

E Q Q Q Q E H. W W
|---------------|-----------|----------|------|
|-7-6--4--------|-----------|----------|------|
|---------7--5--|-4-5-------|----------|------|
|---------------|-----------|----------|------|
Aメロ'
E Q H E W W W
||--14-----14------|-11--------|-13--------|-11-----||
||o----14----------|-11--------|-14--------|-12----o||
||o----------------|-----------|-----------|-------o||
||-----------------|-----------|-----------|--------||

619 :527:04/01/26 22:15
>504さん

楽器板の左利きスレッドっていうのは知らないなあ。
つーか俺見れば判るかもしれないけど(全部上げるし)にちゃんねる初心者で
ここ以外はほとんど書いたことないです笑
でも左利きだとベースはどっち用使います?
あーあと曲はやってもらえるならどれでもいいので。
one life叩きたいなら喜んで弾かせてもらいますです。
ただどの曲で弾きますが腕は全然保証しませんいやまじで笑。


620 :527:04/01/26 22:17
ただどの曲でも弾きますが

621 :504言いだしっぺ:04/01/27 17:59
★★参加のみなさまへ★★
533氏が参加希望出してくれたんで、3/14でも良いですか〜?
時間は1時から3時間で。3/14はホワイトデーですよね?
クリスマスほど規制はないでしょうけど・・・・・・って気にしすぎ?
本当にとろくてすみませんが、3/14異論ないですね?

>527氏>521氏
やった!onelife叩きます。叩かせてください!
Baは右利き用を使ってますよ


  ★★★現在確定の曲(多数決などで決めました)★★★
(P・L)モールタウンプリズナー、ターミナルヘブンズロック、
  ロンサムダイアモンド

(他) I think I can、カーニバル、アドバイス、
   Ninny、one life、Swanky Street




622 :527:04/01/28 00:14
ターミナルヘブンズロックのベース


Q E Q. Q E Q. Q W
|--------------|----------------|
|--------------|----------------|
|--------------|----------------|
|-5--4------3--|-2------1--0----|

イントロ、Aメロ \はスライドダウン
Q E E E Q Q E E E E Q. Q E E E Q Q Q Q Q E
|----------------|-----------------|-----------------|---------|
|----------------|-----------------|-----------------|---------|
|----------3--5--|-5-5-3-5-7\------|-------3--5\-----|---------|
|-5--5-3-5-------|--------------5--|-5-3-5--------2--|-3--5--5-|

Bメロ
E E E E E E E E E E E E E E E E E E E E E E E E E E E E E E E E
|-----------------|-----------------|-----------------|-----------------|
|-----------------|-----------------|-----------------|-----------------|
|-----------------|-----------------|-----------------|-----------------|
|-0-0-0-0-0-0-0-0-|-0-0-0-0-0-0-0-0-|-2-2-2-2-2-2-2-2-|-2-2-2-2-2-2-2-2-|

E E E E E E E E E E E E E E E E E E E E E E E Q Q Q Q E
|-----------------|-----------------|-------------------|------------|
|-----------------|-----------------|-------------------|------------|
|-----------------|-----------------|-5-5-5-5-5-5-5-5\--|------------|
|-0-0-0-0-0-0-0-0-|-0-0-0-0-0-0-0-0-|-------------------|-2--3--5--5-|


623 :527:04/01/28 00:16
続ターミナルヘブンズロックのベース

サビ
E E E E E Q Q E E E E E E E E E E E E Q Q E E E E E E E
|-----------------|-----------------|---------------|---------------|
|-----------------|-----------------|---------------|---------------|
|--------------5--|-5-5-5-5-5-5-5---|------------5--|-5-5-5-5-5-5-5-|
|-5-5-5-5-5-3-----|---------------5-|-5-5-5-5-3-----|---------------|

E E E E E E E E E E E E E E E E E E E E E E E E E E E Q
|-----------------|-----------------|-----------------|------------|
|-----------------|-----------------|-----------------|------------|
|-----------------|-----------------|---------------5-|---5---5----|
|-5-5-5-5-5-5-5-5-|-4-4-4-4-4-4-4-4-|-2-2-2-2-2-2-2---|------------|


Aメロ2回目、セコンドたのんであたりからオクターブ上 1弦 9-7p は9から7へのプリング
Q E E E Q Q E E E E Q. Q E E E Q Q Q Q E E E
|----------------|-----------------|----------------|----------|
|----------------|-----------------|-------------4--|-5--7-5-5-|
|----------3--5--|-5-5-3-5-7\------|-------3--5-----|----------|
|-5--5-3-5-------|--------------5--|-5-3-5----------|----------|

Q E E E E E Q E E E E Q S S Q E E E Q Q Q Q E Q
|----------5-5-7--|-7-7-5-7-9--9-7p-----------5--7-----------|
|-7--7-5-7--------|-----------------7---7-5-7-------4--5-7-7-|
|-----------------|------------------------------------------|
|-----------------|------------------------------------------|


624 :527:04/01/28 00:17
後ターミナルヘブンズロックのベース

サビのギターソロ前 12あたりへのスライドアップとダウン
E E E E E E E E E E E E E E E E E E E E E E E E E E E Q E E E
|--------------------------------------------------------------------|
|-------------------------------------4------------------------------|
|-----------------------------------------------5---5---5------------|
|-5-5-5-5-5-5-5-5-4-4-4-4-4-4-4-4-2-2---2-2-2-2------------5S12S5----|

加速していく人類に祝福をのあたり、スライドでぐにゅぐにゅした感じ
E E E E E E E E E E E E E E E E E E E E E E E Q Q Q Q
|-----------------|-----------------|------------------|---------------|
|-----------------|-----------------|------------------|---------------|
|-----------------|-----------------|---------------5\-|----------9\---|
|-5-5-5-5-5-5-5-5-|-4-4-4-4-4-4-4-4-|-2-2-2-2-2-2-2----|--5\--7\-------|


625 :527:04/01/28 00:19
次はlonesome diamondのベースやる予定。
まあ大体出来てるんだけどそのあとの大体じゃない部分が
作業の大半を占めるんだよな笑。

626 :壁に耳あり、障子にメアリーさん:04/01/28 00:58
ttp://kyokoscafe.net/pirouzu/

今発見したんだが、↑ここいろいろ載ってるぞ

627 :527:04/01/28 03:05
>>626
おおすげえかなり量ある。外人すげえ。資料性高いね。参考になるわ。
んで早速カーニバルのベースがあったんだけど2つあってでも両方なんか
しっくりこないから俺もとってみた。つってもリフだけ。

E E E E E E E Q. Q E E E Q E Q E E E Q. Q E E E E
|---------------------------------------------------------------------|
|---------------------------------------------------------------------|
|-----7---5-8------------------------------------------/10-10-10-10---|
|-0-0---0-----0-3----/13\--5-8---7----7--5-3-5-3----3-----------------|

頭、0の2度目はアタックが良く聞こえないからこれなくって1度目が4分かも。
あとスライドアップダウンのも微妙。3弦でアップ4弦でダウンのようにも聞こえる。
つーか繰り返しの時々でちがく聞こえる笑。
あと5-8---7----7の7の辺りも微妙だな。

628 :504言いだしっぺ:04/01/28 23:30
★★★Pillows copy party in rinkydinkstudio SHIMOKITAZAWA★★★

日時 2004年3月14日(日)
PM1:00より3時間
  場所 rinkydinkstudio SHIMOKITAZAWA
〒155-0031 東京都世田谷区北沢2-34-5プリマヴェール下北沢
TEL:03-5465-6569 FAX:03-5465-6567
営業時間:24時間営業!
アクセス:小田急線/京王井の頭線 下北沢駅北口から徒歩4分
スタジオ:6部屋 
    http://www.rinkydinkstudio.com/title.html

  ★★★演奏曲リスト(多数決などで決めました)★★★
(P・L)モールタウンプリズナー、ターミナルヘブンズロック、
  ロンサムダイアモンド
(他) I think I can、カーニバル、アドバイス、hybrid rainbow、little busters
  Ninny、one life、Swanky Street、ride on shooting star

演奏担当者は今後のレス等により決定。
日時の都合が付く方、どんどん参加してください。(特にドラムが不足しています。)
>>585が参加希望テンプレです。

629 :壁に耳あり、障子にメアリーさん:04/01/29 00:07
メール欄に「sage」っていれてみるといいかもよ
他スレに書く時は特に

それはともかく、成功するといいね

630 :壁に耳あり、障子にメアリーさん:04/01/29 01:05
本スレの住人が何事かと思うような貼りは
やめようよ・・・。
手遅れだけど。

「こんなことやります」で誘導すればいいだけじゃん。
というか、あの貼りだけじゃなにをやるのかすら
わかんないよ。






そもそもthe pillowsだっつーの。

631 :壁に耳あり、障子にメアリーさん:04/01/29 06:41
3月14日はライブやる日だよ…しかもpillowsコピーバンド…

632 :521:04/01/30 00:53
3/14了解です。

ところで、曲とメンバーはいつごろ確定に
なるんでしょうか。
3月より2月中のほうが余裕があるので、
早めに練習が始められるとありがたいん
ですが。

633 :527:04/01/30 01:33
曲は>>628で決定でいいと思う。
メンバー確定は人相手の問題だからいつと決めるのは難しいんじゃないかな。
こっからはおのおの弾きたい曲を言っていけばいいんじゃないですか。
この曲は弾けますとかこの曲絶対やりたいですとか曲は問わず何曲まで弾けますとか
この曲はおばあちゃんが遺言で弾くなっていってましたとか。
俺はどれ弾きたいかなあギターではlonesomeのリード、ベースはmole townかな。
Adviceはどっちも好きかも。
まあほかも全部やれといわれたらやります。ルート弾きと単音弾きとかになるかもだけど笑。


634 :504言いだしっぺ:04/01/30 22:01
〜*〜*各パート担当希望一覧(1月30日時点)*〜*〜
モールタウンプリズナー→Ba527
ターミナルヘブンズロック→Dr504
ロンサムダイアモンド→MGr527
I think I can
カーニバル→Dr504
アドバイス
hybrid rainbow→Ba504
little busters→Ba504
Ninny→Ba504
one life→Dr504
Swanky Street
ride on shooting star→Dr504

※これはあくまでも1月30日現在の希望一覧であり、確定したものではありません。
担当希望曲・パートがかぶる場合はスレにて希望者と相談し、決定してください。
ここからは各パートごとに対話が必要な場面があるでしょうから、
なるべく定期的にスレをチェックするようにしてください。


こんなんでどうですか?
この表は何回も書き込むと他の人には目障りだと思いますので、
自分だけが定期的に書き換えようと思います。
>>633で言うようにそれぞれがこのスレに希望曲・パートを書き込めば良いと思います。


635 :533:04/01/30 22:37
hybrid rainbow、little bustersのバッキングギター希望します。
いまのところ上記の曲目の中だと、この2曲は練習したことがありますので、
バッキング希望ということは、自動的にさわおパート(つまりヴォーカルも込み)
ということになるのでしょうか?
もちろんできれば、ヴォーカルもやってみたいです。


636 :521:04/01/31 01:04
>>633
なるほど、そうですね。失礼しました。
参加表明の締切とかがあって、それから
担当曲を決めるもんだと思ってたので。

では希望曲をば。
私はドラムしか芸がありませんので、種別は略します。
ターミナル、ITIC、カーニバル、ハイブリ、リトバス。

見事に504さんと二曲ほど被ってますが、
どうしましょうか。(^-^;
いまのところドラムは二人しかいないので、
残りの曲をどう割り振るかも含めて。

個人的には、ベースの都合さえなんとかなるなら
ハイブリとリトバスは504さんのドラムでも
聴いてみたいところなんですが…。
(この二曲は何回か回すんですよね?)

637 :521:04/01/31 01:07
えーと。
あと気になってるので確認したいことが…。

>>629の人も書かれてますけど、504さんと527さん
sageないのって何かポリシーお持ちですか?
壁板は人が少ないのでまだ大丈夫みたいですけど、
荒らし対策&他スレへの配慮から、対象を限定する
スレッドのローカル向け話題ではメール欄にsageと
入れて、スレッドを一覧の上位に上げないのが
マナー(一部の板ではルール)のはずです。

平和な壁板とはいえいちおう2ちゃんです。
油断すると荒らしを呼び込む結果になる可能性も
あるのでご注意ください。
「自治厨ウザー」と煽られる覚悟をしつつ。

638 :514:04/01/31 01:10
お疲れさまです。
ベース氏に音源渡しました。
興味があるのでメンバーに入れて下さい、とのことです。
自分は今のところ可能なのは
hybrid rainbow
I think I can
Swanky Street
カーニバル
のPeeちゃんパートです。

639 :527:04/01/31 01:34
>>637
一応上げ下げについてはしってるつもりです。
下げ進行という言葉も知ってますし。
2chあまり書き込みはしないですがROMはいろいろな板でしますし。
その上でこのスレッドは十分人に見せる価値があると思い、
かつこの板の空気をふまえ毎回上げてました。
っつてもまあなんとしても上げなければとも思わないので今後は下げにします。
つーかこの俺の書き込みはまさに下げにふさわしい下らない内容ですな笑。


640 :527:04/01/31 01:42
>>636
じゃあ俺もベース覚えときますよ。
つーかhybrid rainbowはすでに弾けます。
ちなみにギターも両方弾ける笑。
little bustersもそんなに難しいベースじゃないと思うし。

>>638
おお-それは心強いわー。
ぜひよろしくお願いしますとお伝えください。

641 :521:04/01/31 02:44
>>639
ご存じでしたか…。

では私はまたもおせっかいだったわけですね。
とほほ。
ごめんなさいさげ。

642 :504言いだしっぺ:04/01/31 13:24
タミヘとカーニバルは521氏に任せます。
Ninnyは自分はBaをやらねばならないので521氏お願いします。
(嫌な場合はBaを514氏のベース氏にお任せするようになるでしょう。)
あと自分はmole、ロンサム、swankyのDrをやります。
あと何日か経ってからまた担当希望一覧は載せます。

sage進行にしなくてごめんなさい。
壁スレだから別にいいかなと思って。
マイナーすぎる板ではage進行の板が多いから。CM板とか、DIY板とかw


643 :574:04/01/31 23:12
今のところ、他の方とかぶらないでできる曲は
ターミナル、プリズナー、Ninnyのリードギターです


644 :521:04/02/01 20:30
あくまでも個人的見解ですけど。
sage進行の基準のひとつって、その板の住人に
とって目障りかどうかだと思うんですよ。
楽器作曲とかならともかく、壁板的にはこのスレって
微妙な存在ですよね?

「じゃあ壁板にふさわしいスレってなんだよ」と
いわれると困りますが(苦笑)。

>>642
ターミナルも私で良いんですか?
504さんが最初から希望されていた曲なので、
ご希望でしたらそちらはお譲りして、代わりに
こちらはカーニバルを、と思ってたんですが(笑)。
Ninnyは了解です。あとはAdviceかな?
…努力してみます。(^_^;

645 :504言いだしっぺ:04/02/01 21:14
Advice、ONE LIFE、ride onの担当者がDrしか決まっていないので世路。
多美へ、ロンサム、ICAN、カニバ、スワンキーはDrとMGr以外募集。

>>643
574氏の希望曲ということですね。

646 :527:04/02/04 00:08
>>645
じゃあI think i canとカーニバルのベースもらい。
あと前言ったようにOne lifeもベースやります。


647 :壁に耳あり、障子にメアリーさん:04/02/04 18:50
こんばんわ。
えっと、(多分)521のバンドのリズムギターをやっている者です。
オフ回の参加者ってまだ募集してるんでしょうか?
見るだけでもいいので参加したいのですが。

一応自己紹介します。
東京在住27歳。
パート:リズムギター(さわおギター?)。
ベースはコードべたびき、ドラムは極単純な8ビートならできる・・・かも。
はっきり言って耳には自信が無いので
耳コピの戦力にはならないと思います。

>>521
自治厨ウザー。
うそ。ごめん。
でもほどほどにしときなよ。

あと、オフ会に関係無い人と興味ない人はスレ汚しゴメンナサイ。

648 :504言いだしっぺ:04/02/04 21:04
>>647氏はじめまして。
スレ読み返してもらえば解ると思うけど、今のところオフ会に締め切りはありません。
見るだけでも演奏しても構いません。3月14日まで1ヶ月以上あるので
練習すればまだ間に合うんじゃないかと思いますよ。
>>649に担当希望一覧載せますんで、空いてるところは文句なし、
かぶってしまったら相談でよろしくお願いします。


649 :504言いだしっぺ:04/02/04 21:10
〜*〜*各パート担当希望一覧(2月4日時点)*〜*〜
モールタウンプリズナー→MGr574、Ba527、Dr504
ターミナルヘブンズロック→MGr574、Dr521
ロンサムダイアモンド→MGr527、Dr504
I think I can→MGr514、Ba527、Dr521
カーニバル→MGr514、Ba527、Dr521
アドバイス→Dr521、
hybrid rainbow→Vo533、MGr514、SGr533、Ba504・527、Dr521・504
little busters→Vo533、SGr533、Ba504・527、Dr521・504
Ninny→MGr574、Ba504、Dr521
one life→Ba527、Dr504
Swanky Street→MGr514、Dr504
ride on shooting star→Dr504

※これはあくまでも2月4日現在の希望一覧であり、確定したものではありません。
担当希望曲・パートがかぶる場合はスレにて希望者と相談し、決定してください。
ここからは各パートごとに対話が必要な場面があるでしょうから、
なるべく定期的にスレをチェックするようにしてください。

650 :壁に耳あり、障子にメアリーさん:04/02/05 16:17
>>648
それでは参加させていただくことにします。
I think I can、カーニバル、one life、ride on shooting starのSGr
ならばできると思います。
でもできる人多そうだから他の曲にまわった方がいいでしょうかねぇ?

私は、さわおの作った曲は女性ボーカルでこそ映える曲もあると思っているのですが
そうゆう人はいないのかな?mu-mu-バージョンのOVER AMPとか良かったし。


651 :504言いだしっぺ:04/02/05 21:37
Voの方々→ハイブリ、リトバス以外決まってません(汗;
Baが居ない→タミヘ、ロンサム、advice、swanky、ride on
Voは考えずに現在最低メンバーがそろっている曲→
モール、ICAN、カニバ、ハイブリ、リトバス、ninny
(ONE LIFEはMGrが決まれば演奏できます。)

一番この中で人気がないのはadviceですね。
自ら演奏したいって方が居ないし、Drしか決まってません。
演奏者も少ないですし、今回はやらなくてもいいかも。
・・・・・・いやそんなことない!って方は、早めにスレに連絡くださいw


652 :504言いだしっぺ:04/02/05 21:41
>514氏
bass氏にタミヘ、ロンサム、swanky、ride onを練習してもらいたいので、お伝えください。


653 :514:04/02/06 00:20
>652
了解いたしました。

advice人気ないんですか。
誰もいらっしゃらないようならMGrでやりたいです。
ウチのベースもこの手の曲は得意ですし。

654 :521:04/02/06 00:33
「この曲は俺がやる」
「馬鹿言うなそれは俺んだ」
「俺こそがふさわしい」

みたいなやりとりが発生するのを(特にギターは)
想像してたんですが、皆さん控えめですね…。(^_^;

ドラムももう一人くらい参加してくれれば
消去法みたいにならずに済むのになあ、と。
十代ドラマーたちは忙しいのかな。

>>647
コンゴトモヨロシク。


655 :壁に耳あり、障子にメアリーさん:04/02/06 19:31
http://homepage.mac.com/hiro2_mustang2/guiter/pillow_cc.html
このサイト、ここの住人の?

656 :533:04/02/06 19:41
追加で one lifeのSGr
ぜひやりたいという方が他にいなければ、演奏したいです。

657 :574:04/02/06 20:47
Vo決まってない曲、歌います〜
SGrも歌いながらいけます


658 :504言いだしっぺ:04/02/06 22:00
>533氏
647氏がSGrを希望してますので相談して決めてください。

>514氏
そういうことなら、adviceのBaも>>652とともにお願いします!

>574氏
ロンサム、advice、SwankyがSGrとVoの両方決まってません!
ぜひお願いします。
ICAN、カニバ、ride onはVo空いてます。こちらも是非!
返答はスレにお願いします。

ところで、担当希望表まちがってないですよね。
不備の場合はスレへ連絡を。

・・・・・・今、表をよく見ていたら以外にもリトバスのMGrが決まってないんですね。
誰かお願いします。


659 :647:04/02/06 22:19
やっぱSGr弾ける人出てきましたね。
いいかんじ。
ってことで上の4曲からはカーニバルに絞って
やらせてもらおうと思います。
あとは、モールタウンプリズナーをやる人がいなければ
やりましょう。耳コピもマダですが。

>>654
コチラコソヨロシク


660 :647:04/02/06 22:34
あうあ(;´Д`)控えめすぎたか・・・
譲り合ってると延々決まらなそうなので
I think I canとride on shooting starもやりますー。
one lifeは譲ります。
こんなとこでよろしいか。


661 :sage:04/02/07 09:42
>655
見てるが住人ではない。つ〜か直リンすんなよ。

662 :504言いだしっぺ:04/02/07 20:52
〜*〜*各パート担当希望一覧(2月7日時点)*〜*〜
モールタウンプリズナー→MGr574、SGr647、Ba527、Dr504
ターミナルヘブンズロック→MGr574、(Ba514メンバー氏)、Dr521
ロンサムダイアモンド→MGr527、(Ba514メンバー氏)、Dr504
I think I can→MGr514、SGr647、Ba527、Dr521
カーニバル→MGr514、SGr647、Ba527、Dr521
アドバイス→MGr514、(Ba514メンバー氏)、Dr521、
hybrid rainbow→Vo533、MGr514、SGr533、Ba504・527、Dr521・504
little busters→Vo533、SGr533、Ba504・527、Dr521・504
Ninny→MGr574、Ba504、Dr521
one life→SGr533、Ba527、Dr504
Swanky Street→MGr514、(Ba514メンバー氏)、Dr504
ride on shooting star→SGr647、(Ba514メンバー氏)、Dr504

※これはあくまでも2月7日現在の希望一覧であり、確定したものではありません。
担当希望曲・パートがかぶる場合はスレにて希望者と相談し、決定してください。
ここからは各パートごとに対話が必要な場面があるでしょうから、
なるべく定期的にスレをチェックするようにしてください。

663 :527:04/02/08 13:06
>>662

欠けてるパートをまとめてみました。

モールタウンプリズナー→V
ターミナルヘブンズロック→V SG
ロンサムダイアモンド→V SG
I think I can→V
カーニバル→V
アドバイス→V SG
Ninny→V SG
one life→V MG
Swanky Street→V SG
ride on shooting star→V MG

hybrid rainbow→
little busters→

というようなのですがrideのMG空いてるみたいなので
やらせてもらいたいと思います。


664 :無名さん:04/02/08 22:01
今ベースでI know youを弾いていたら、
パンクVar笑点のベースでも弾いてるのかと妹に言われたw

665 :574:04/02/09 04:06
了解です〜
やらせてもらいます

666 :574:04/02/09 04:21
あ、あと
リトバス、MG空いてるみたいなので
やりたいですー

667 :574:04/02/09 14:26
またまたすみません^^;
リトバスじゃなくて、ONELIFEのMGrの方に変更します〜

668 :無名さん:04/02/09 21:07
〜*〜*各パート担当希望なし一覧(2月9日時点)*〜*〜
モールタウンプリズナー→Vo
ターミナルヘブンズロック→Vo、SGr
little busters→MGr
Ninny→Vo、SGr

ONE LIFE Voやります!Drちょっと省くところあるかもしれないけど、歌いながら叩きますw


669 :504言いだしっぺ:04/02/09 21:08
ああ、無名さんになってしまった・・・欝

670 :527:04/02/10 23:25
俺もなんか歌いながら弾いてみようかなあ笑

んで、久しぶりに耳コピ。
>>627 の続きでカーニバルをば。
これのベース地味にかっこいいんだよね。

待ってたんだー
E E E E E E E E E E E E E E E E E E E E E E E E E E E E E E E E
|--------------------------------------------------------------------|
|--------------------------------------------------------------------|
|-3-3-3-3-3-3-3-3-----------------5-5-5-5-5-5-5-5-3-3-3-3-3-3-3-3----|
|-----------------3-3-3-3-3-3-3-3------------------------------------|

手を伸ばしてもー
E E E E E E E E E E E E E E E E E E E E E E E E E E Q E E E Q
|-------------------------------------------------------------------|
|-------------------------------------------------------------------|
|--------------------------------------------------------3-3-3------|
|-5-5-5-5-5-5-5-5-5-5-5-5-5-5-5-5-5-5-5-5-5-5-5-5-5-5-5--------3----|

E E E E E E Q E E E E E E Q E E E E E E Q E E E E E E E
|---------------------------------------------------------------|
|---------------------------------------------------------------|
|-----------2-3--3-3-3-3-3-3--------------2-3--3-3-3-3-3-3-3----|
|-3-3-3-3-3------------------3--3-3-3-3-3-----------------------|

E E E E E E E E E E E E E E E E E E E E E E E E W
|------------------------------------------------------|
|------------------------------------------------------|
|-----------------------8-8-8-8-8----------------------|
|-0-0-0-0-3-3-3-3-1-5-5-----------5-5-5-5-5-5-5-5-5----|


671 :527:04/02/10 23:27
カーニバルベース2

軽くなった頭でー
E E E E E E E E E E E E E E E E E E E E E E E E E E E E E E E E
|--------------------------------------------------------------------|
|--------------------------------------------------------------------|
|-3-3-3-3-3-3-----------------2-2-5-5-5-5-5-5-----3-3-3-3-3-3-3-3----|
|-------------1-1-3-3-3-3-3-3-----------------5-5--------------------|
E E E E E E E E E E E E E E E E E E E E E E E E E E E E E E E E
|--------------------------------------------------------------------|
|--------------------------------------------------------------------|
|-3-3-3-3-3-3-3-----------2---2-2-5-5-5-5-5-5------------------------|
|---------------3-3-3-3-3---3-----------------5-5-3-3-3-3-3-3-3-3----|
笑い転げるー
E E E E E E E E E E E E E E E E
|------------------------------------|
|-3-3-3-3-3--------------------------|
|-----------3------------------------|
|-------------1-1-5-5-5-5-5-5-5-5----|
ギターソロ途中から
E E E E E E E E E E E E E E E E E E E E E E E E E E E E E E E E
|--------------------------------------------------------------------------|
|--------------------------------------------------------------------------|
|-3-3-3-3-3-3-7-7-10-10-10-10---------5-5-5-5-5-5---3-3-3-3-3-3-3-/12s3----|
|-----------------------------7-7-7-7-------------3------------------------|
E E E E E E E E E E E E E E E E E E E E E E E E E E E E E E E E
|--------------------------------------------------------------------|
|--------------------------------------------------------------------|
|-3-3-3-3-3-3-----------------2-2-5-5-5-5-5-5------------------------|
|-------------1-1-3-3-3-3-3-3-----------------5-5-3-3-3-3-3-3-3-3----|

672 :527:04/02/10 23:28
カーニバルベース3

二人同時にー
E E E E E E E E E E E E E E E E E E E E E E E E E E E E E E E E
|--------------------------------------------------------------------|
|--------------------------------------------------------------------|
|--------------------------------------------------------------------|
|-5-5-5-5-5-5-5-5-5-5-5-5-5-5-5-5-5-5-5-5-5-5-5-5-5-5-5-3-5-3-5-5----|

泣いてしまったー
E E E Q E E
|-----------------|
|-------3---------|
|---0-3----3------|
|-1----------1----|


673 :514:04/02/12 00:47
リトバス、MGrやろうかな、と思ってます。
ソロだったら弾けるので。
あとは、ほぼコードかき鳴らし系でいいんですよね?
SGrとほとんど区別がつかなかったんで。

674 :壁に耳あり、障子にメアリーさん:04/02/13 10:00
peeちゃんの使ってる、オレンジの下のキャビってアレ何、PPC412?
http://www.orange-amps.com/common/guitarcombos.html
誰か教えてくれません?

675 :壁に耳あり、障子にメアリーさん:04/02/13 20:20
バスストとか簡単そうじゃない?
でもベースってどう引いてんだろ・・・何気に音がとれん・・・

676 :647:04/02/16 06:59
モールタウンプリズナーを練習してるのですが
わからないところがあります。
あいにーとぅーのーもうあばうまいすぺい、
のところです。

あと、ride on shooting starの最後は
|----------------|
|----------------|
|222-------------|
|--------0-------|
|----4-----------|
|----------------|

に聞こえるんですけど、合ってる?


677 :504言いだしっぺ:04/02/19 23:01
〜*〜*各パート担当希望なし一覧(2月19日時点)*〜*〜
モールタウンプリズナー→Vo
ターミナルヘブンズロック→Vo、SGr
Ninny→Vo、SGr

あとは上記3曲だけですね。VOさんお願いします。
自分はVOやるとしても民恵以外は無理です。
ああいう曲だとやっぱり男の人が良いと思うので誰かお願いします。
SGr居なくてもなんとか出来そうな曲だと思いますがどうでしょうか?
ご意見くださいな。

昨日は宇都宮VOGUEに行ってまいりました。
4年前はじめて宇都宮来たときは客が柵を倒したw伝説のLIVEでしたが、
それからずっと宇都宮はいつも盛り上がる気がします。
昨日のパントマイムはよかったなぁ。
あと24日頑張って練習しよう・・・・・・
残業多すぎでなかなかスタジオ入れんのだよ・・・・・・。
仕事明日しめきりだしなぁ(ボソッ)

678 :574:04/02/21 03:09
モールタウンとNinnyならリード弾きながらたぶん歌えます
ターミナルはちょっときついです^^;


679 :壁に耳あり、障子にメアリーさん:04/02/21 14:18
モールタウンのMギター弾けないのでうpしてくれますか?

680 :647:04/02/21 16:34
モールタウンのSギターは
A F#m E D
の繰り返しで良いんでしょうか。
自信なくなってきた。

あと、最初にカウント入れてもらわないと合わない気がします。
同時スタートで無い曲なら良いんですが。
その辺の話が出てなかったけどその場で急にできるもんですか?
ドラムの方々。

ナルヘヴのVoやSGrもやってもいいですがその場合曲数が多すぎなので
どなたかどれか替わっていただきたいです。

ride on shooting starの練習をしていて、
さわおの振り付けがでかいのは
体で拍をとってないと弾けないからだと思った。


681 :504言いだしっぺ:04/02/21 17:04
〜*〜*各パート担当希望一覧(2月21日時点)*〜*〜
4 モールタウンプリズナー→MGr574、SGr647、Ba527、Dr504
Drターミナルヘブンズロック→MGr574、(Ba514メンバー氏)、Dr521
4 ロンサムダイアモンド→Vo574、MGr527、SGr574、(Ba514メンバー氏)、Dr504
Gt I think I can→Vo574、MGr514、SGr647、Ba527、Dr521
Gt カーニバル→Vo574、MGr514、SGr647、Ba527、Dr521
アドバイス→Vo574、MGr514、SGr574、(Ba514メンバー氏)、Dr521、
4 hybrid rainbow→Vo533、MGr514、SGr533、Ba504・527、Dr521・504
Gr little busters→Vo533、MGr514、SGr533、Ba504・527、Dr521・504
4 Ninny→MGr574、Ba504、Dr521
Gr one life→MGr574、SGr533、Ba527、Dr504
2 Swanky Street→Vo574、MGr514、SGr574、(Ba514メンバー氏)、Dr504
4 ride on shooting star→Vo574、MGr527、SGr647、(Ba514メンバー氏)、Dr504

※これはあくまでも2月21日現在の希望一覧であり、確定したものではありません。
担当希望曲・パートがかぶる場合はスレにて希望者と相談し、決定してください。
ここからは各パートごとに対話が必要な場面があるでしょうから、
なるべく定期的にスレをチェックするようにしてください。

〜*〜*各パート担当希望なし一覧(2月9日時点)*〜*〜
モールタウンプリズナー→Vo
ターミナルヘブンズロック→Vo、SGr
Ninny→Vo、SGr

682 :504言いだしっぺ:04/02/21 17:25
>>678で574氏がninnyとモールのVOなら可って書いてあったね。スマソ。

>>647
ドラムのカウントの話ですが、>>681の表の曲名の前に書いておきました。
4→4カウント
2→2カウント
Gr→ギターソロから入る
Dr→ドラムソロから入る
アドバイスは曲を持ってないので分からん。

ライドンは裏から入ってます。
「1・2・3・4・」をカウントとすると、「4」の後の「・」のタイミングから
「ジャカジャージャージャー♪」と入っているんです。
「1・2・3・4ジャカジャージャージャー♪」です。



683 :514:04/02/21 19:12
いよいよ1ヶ月切りましたね。
スタジオってもう予約入れました?
みんながわかるような名前で予約入れておくってのはいかがでしょうか?


684 :647:04/02/22 09:31
>>682
ああー、なるほど。ありがとうございます。

--|----------------|
--|----------------|
22|2---------------|
--|--------0-------|
--|----4-----------|
--|----------------|

こうゆうことですか。
書き込むときにどうも拍数が合わないと思ったんだよなぁ。(^^;
高さは合ってる?

685 :壁に耳あり、障子にメアリーさん:04/02/22 14:45
offで盛り上がってるところ悪いんですがアドバイスください。
今、BD-2を持っていて次にMD-2かRAT2を買おうと思っているのですが
よりPEEちゃんらしくなるのはどちらでしょうか?

素直に今PEEちゃんが使っているMD-2を買うか、MUFFの代わりにRAT2を買うか・・・

686 :壁に耳あり、障子にメアリーさん:04/02/23 10:20
自分もオフに参加したいんですけど、
まだ間に合いますか?
因みに、担当はDrなんですが…


687 :521:04/02/23 14:46
待望の三人目キタ───(゚∀゚)───!!

参加者絶賛受付中…のはずです。
詳しいことは504さん待ちですが、さしあたり
担当の振り直しのために希望曲を挙げていただければと。

688 :504言いだしっぺ:04/02/23 20:28
>>686
キタ━━(゚∀゚)━( ゚∀)━( ゚)━( )━( )━(゚ )━(∀゚ )━(゚∀゚)━━!!!!!
是非参加してください!Drがたったの2人?!と不足してたんで
参加してくれれば大助かりです!
曲は>>628あたりを参照してください。
686氏が希望曲挙げてくだされば自分は何の曲でも構いませんので、
お気になさらずにw
欲を言えば何曲演奏されても構いませんので(殴)
スレもざっと目を通していただければ。


689 :壁に耳あり、障子にメアリーさん:04/02/23 20:28
CDだとあんまりそんな印象受けないんだけど
ちょっと前のライブでPEEちゃんのギター
なんか音が堅い(ギター初心者なものでうまく言えません)
様に感じたんですがそれってオレンジ使ってるから?

690 :504言いだしっぺ:04/02/23 20:40
>>514
いや、もう>>628の時にすでに予約してしまいました・・・・・・本名でw
分かるような名前で入れられるものだったんですか!
あぁ、ちょっと面白く無かったですね・・・・・・スマソ
そういえば部屋はどこかって書いて無かったですね。
3Fの6スタです。16畳。

691 :無名さん:04/02/23 20:41
>>689
PEEちゃんはわざとイイ音のしないギターを使っているから・・・・・・って説もある。

692 :壁に耳あり、障子にメアリーさん:04/02/23 22:31
>>685
昔の曲ならRAT,今ならMD-2。ピロっぽいのはRAT。
MD-2の方が音の作れる幅は広がる。
MUFFとRATを比べちゃだめっしょ?MUFFは完全に別もの。

>>689
ライブでは歪み系をきつめにして、低音はグライコで完全にカットしてるからだと思われ。
 BD-2やオレンジも乾いた系の音になるしね。


693 :689:04/02/23 22:47
なるほど、あの音を作っているのは
ムス、オレンジ、BD-2、歪みup、低音カットですか。

あの音が好きで出したいんですが、
BD-2、歪みup、低音カットにムスは何とかがんばれるとしても
オレンジは無理だなぁ。
オレンジ高すぎ。・゜・(ノД`)

694 :692:04/02/24 06:40
低音カット=MUFF利用時でした。
あとはやはりシングルコイルのギターが必須かと。
オレンジはがんがれ!

695 :686:04/02/24 14:00
えと、希望曲は、
彼女は今日、ONE LIFE、ハイブリ、Ride on shooting star、
Advice、ALL THE WAY TO THE EDGE OF THIS WORLD
Hello,Welcome to Bubbletown'sHappy Zoo(instant show)
です(多っ!) 宜しくです!

696 :504言いだしっぺ:04/02/24 22:29
>686氏
いや、演奏する曲はもう>>628で決まりなんで(書き方悪かったね。スマソ。 )
>>695の中ではONE LIFE、ハイブリ、Ride on shooting star、Advice、
が演奏リストに該当します。
自分がやる予定だったONE LIFE、ハイブリ、Ride on shooting starはお譲りします。
・・・・・・たぶん521氏はAdvice譲ってくれると思うので、
とりあえず、この4曲を練習してきてください。

521氏返答よろ。

697 :504言いだしっぺ:04/02/24 22:46
>>684
そうゆうことです。
自分はギター持ってないんでわからないけど、
Baで弾く限りではその音であってます。


698 :521:04/02/25 00:32
>>696
御意。

アドバイス以外にも希望曲があれば
応相談ということで。

699 :686:04/02/25 08:51
>504氏
了解です!以上の4曲、気合入れて練習します!w
>521氏
アドバイス譲ってくれて、サンキュです!
一生懸命練習します。


700 :壁に耳あり、障子にメアリーさん:04/02/25 22:13
OFFで盛り上がってるところすみません。
「I know you」のコード教えてください。
イントロとAメロが、C-Am-F-Gって事は分かるんですが。

701 :514:04/02/27 01:40
>504氏
場所さえわかれば、問題ないっす。
3Fの6スタですね、了解です。間違えないように行きます。

>700
いえ、つーか本来はそういうスレですから、すみませんはこちらの方です。

702 :514:04/02/27 01:47
>>682
アドバイスは、さわおパートからなのでGr、ですね。
外出だったらすんません。

703 :壁に耳あり、障子にメアリーさん:04/02/27 22:57
最新アルバムまだ聞いていないへたれファンなんだが参加したいかも

↑のほうで彼女は今日とかコピーしてたものです。
Voとギター、ルートごり押し+へたれ移動音ならベースも出来なくはない罠
あとは適当に三度でコーラス入れたりしますんでwぜひぜひ参加させてください

ノーパソもってって録音とかしようか?と言ってみるテスト

704 :番号忘れた:04/02/27 23:50
あー風邪ひいたり親戚死んだり弦張り替えたりしてる間に
いつの間にやらもう月末じゃん。
I think i canとOne life耳コピしないとー。

>>703
流れ的にも来るもの拒まずだとおもうので是非着て欲しいです。
つーか最初表明してた高校生とかどこいったよー?笑。
あー俺もコーラスくらいやっときたいかなあ。
ターミナルのふっふーふふーとか。I think i canもサビコーラスあるな。

>>幹事さん
One life歌ってたたいて見れなくて残念だ笑。

705 :504言いだしっぺ:04/02/28 14:17
〜*〜*各パート担当希望一覧(2月28日時点)*〜*〜
4 モールタウンプリズナー→Vo574、MGr574、SGr647、Ba527、Dr504
Dr ターミナルヘブンズロック→MGr574、(Ba514メンバー氏)、Dr521
4 ロンサムダイアモンド→Vo574、MGr527、SGr574、(Ba514メンバー氏)、Dr504
Gt I think I can→Vo574、MGr514、SGr647、Ba527、Dr521
Gt カーニバル→Vo574、MGr514、SGr647、Ba527、Dr521
Gt アドバイス→Vo574、MGr514、SGr574、(Ba514メンバー氏)、Dr686、
4 hybrid rainbow→Vo533、MGr514、SGr533、Ba504・527、Dr521・686
Gt little busters→Vo533、MGr514、SGr533、Ba504・527、Dr521・504
4 Ninny→Vo574、MGr574、Ba504、Dr521
Gt one life→MGr574、SGr533、Ba527、Dr686
2 Swanky Street→Vo574、MGr514、SGr574、(Ba514メンバー氏)、Dr504
4 ride on shooting star→Vo574、MGr527、SGr647、(Ba514メンバー氏)、Dr686

※これはあくまでも2月28日現在の希望一覧であり、確定したものではありません。
担当希望曲・パートがかぶる場合はスレにて希望者と相談し、決定してください。
ここからは各パートごとに対話が必要な場面があるでしょうから、
なるべく定期的にスレをチェックするようにしてください。

〜*〜*各パート担当希望なし一覧(2月28日時点)*〜*〜
ターミナルヘブンズロック→Vo、SGr
Ninny→SGr

680 :647 :04/02/21 16:34
ナルヘヴのVoやSGrもやってもいいですがその場合曲数が多すぎなので
どなたかどれか替わっていただきたいです。


706 :504言いだしっぺ:04/02/28 14:22
>>680で647氏がターミナル条件付可だそうなんですけど、
ギター希望の方、誰か647氏と交渉していただけませんか?

個人的にはNinnyはSGr居なくても出来ると思うので打ち切りにしようと思いますが、どうでしょうか?

707 :504言いだしっぺ:04/02/28 14:33
>>703
是非参加してください。一応希望曲・パートをある程度決めていますので、
>>705の中であげている曲で希望のものがあれば担当希望者とスレにて交渉してください。
担当希望数が多くて切羽詰まってる方もいらっしゃると思いますのでw

交渉する相手がスレに現れない、交渉成立しなかったという場合も考えられますので、
>>705の曲の中から好きな曲を何曲か練習してきてください。

708 :彼女は昨日:04/02/29 08:51
ありがとうです。703です
数字ばっかってのもアレかと思い小手つけてみました。よろしくです

基本的にコード譜あれば適当にバッキングして遊んでますので
漏れはサブのサブのサブのみそっかすで逝こうかと思うです。

んで質問なんですがボーカルの方々は歌詞どうなさるんですか?
…暗記??(゚∀゚;)

709 :504言いだしっぺ:04/02/29 10:14
>>彼女は昨日氏
できれば暗記がいいとは思うけど、無理だと思ったら歌詞カード見れば?
でも大まかには覚えてないと支障があると思うけどな。
ttp://homepage.mac.com/hiro2_mustang2/guiter/pillow_cc.html
コード譜の数は何処よりも↑が一番だと思いますので参考にさせてもらうと良いかもしれません。
あと、このスレにも何曲か載ってたと思うので参考にしてください。
ああ、そうだ。打ち切りにしようと思っていたninnyのさわおギターやってもらえれば助かりますw
曲持ってないんであれば断ってもらって構いませんので。

710 :忘れた:04/02/29 19:22
i think i canのベース。細かいところつめるのだるくてつめてません笑。
ところでこのころのベースっていまと同じ鈴木さんなのだろうか。

E E E E E E E E E E E E E E E E E E E E E E E E E E E E E E E E
|-------------------------------------------------|-------------------|
|-------------------------------------------------|-------------------|
|-----------------------4-4-5-5-7-----------------|---4-5-7-9---7-----|
|-5-5-5-5-5-5-5-5-5-5-5-----------5-5-5-5-5-5-5-5-|-5-----------------|


Q E E E E E E E E E E E E E E E E E E E E E E E E E E E E E E
|-------------------------------------------------------------------|
|-------------------------------------------------------------------|
|-5--5-0-5-4-4-7---------------4-5-5-5-5-7-5-7-5--------------------|
|----------------7-7-7-5-5-7-7-------------------7-7-7-9-7-7-7-5----|


W. E Q E W E E E E E E E E
|-----------|----------------------|-----------------|
|-----------|----------------------|-----------------|
|-----------|----------------------|---4-5-7-9---7---|
|-5---------|-------0--0S5---------|-----------------|


Q E E E E E E E E E E E E E E E E E E E E E E E E E E E E E E
|----------------|-----------------|-----------------|-----------------|
|----------------|-----------------|-----------------|-----------------|
|-5--5-0-5-4-4-7-|---------------4-|-5-5-5-5-7-5-7-5-|-----------------|
|----------------|-7-7-7-5-5-7-7---|-----------------|-7-7-7-7-7-7-7-5-|


711 :忘れた:04/02/29 19:23
E E E E E E E E E E E E E E E E E E E E E E E E H.. E
|----------------------------------------------------------------|
|----------------------------------------------------------------|
|---------4-4-4-4-5-5-5-5-7-7-7-7-5-5-5-5------------------------|
|-5-5-5-5---------------------------------3-3-3-3-5------------0-|


E E E E E E E E E E E E E E E E E E E E E E E E E E E E E E E E
|------------------|-----------------|-----------------|-----------------|
|------------------|-----------------|-----------------|-----------------|
|------------------|-------4-4-5-5-7-|-----------------|---4-5-7-9---7---|
|-/5-5-5-5-5-5-5-5-|-5-5-5-----------|-5-5-5-5-5-5-5-5-|-5---------------|


Q E E E E E E E E E E E E E E E E E E E E E E E E E E E E E E
|----------------|-----------------|-----------------|-----------------|
|----------------|-----------------|-----------------|-----------------|
|-5--5-0-5-4-4-7-|---------------4-|-5-5-5-5-7-5-7-5-|-----------------|
|----------------|-7-7-7-5-5-7-7---|-----------------|-7-7-7-9-7-7-7-5-|


W. E Q. W. E E E E
|------------------------------------------------|
|------------------------------------------------|
|---------------/7-7------------------9---7------|
|-5---------------------5------------------------|


712 :忘れた:04/02/29 19:23
Q E E E E E E E E E E E E E E E E E E E E E E E E E E E E E E
|----------------|-----------------|-----------------|-----------------|
|----------------|-----------------|-----------------|-----------------|
|-5--5-0-5-4-4-7-|---------------4-|-5-5-5-5-7-5-7-5-|-----------------|
|----------------|-7-7-7-5-5-7-7---|-----------------|-7-7-7-7-9-9-7-7-|


E E E E E E E E E E E E E E E E E E E E E E E E E E E E E E E E
|-----------------|-----------------|-----------------|-----------------|
|-----------------|-----------------|-----------------|-----------------|
|---------4-4-4-4-|-5-5-5-5-7-7-7-7-|-5-5-5-5---------|---------4-4-4-4-|
|-5-5-5-5---------|-----------------|---------3-3-3-3-|-5-5-5-5---------|


E E E E E E E E E E E E E E E E W E E E E E E E E
|-------------------------------------------------------------|
|-------------------------------------------------------------|
|-5-5-5-5-7-7-7-7-5-5-5-5--------------------7-5-4-5-4--------|
|-------------------------3-3-3-3-5--------------------7-5----|


W E E E Q E E E E E E E
|------------------------------------|
|------------------------------------|
|------------4-5-7--------9---7------|
|-5-----------------5-7-5------------|


713 :忘れた:04/02/29 19:26
Q E E E E E E E E E E E E E E E E E E E E E E E E E E E E E E
|----------------|-----------------|-----------------|-----------------|
|----------------|-----------------|-----------------|-----------------|
|-5--5-0-5-4-4-7-|---------------4-|-5-5-5-5-7-5-7-5-|-----------------|
|----------------|-7-7-7-5-5-7-7---|-----------------|-7-7-7-9-7-7-7-5-|


E E E E E E E Q E E E E E E Q E E E Q E Q E E E E E E E
|---------------------------------------------------|------------------|
|---------------------------------------------------|------------------|
|-------------------------/7-7-7-7\----------/12-12-|-4-5-7-9---7------|
|-5-5-5-5-5-5-5-5\--0-3-4------------5-5-5-5--------|------------------|


Q E E E E E E E E E E E E E E E E E E E E E E E E E E E E E E
|----------------|-----------------|-----------------|-----------------|
|----------------|-----------------|-----------------|-----------------|
|-5--5-0-5-4-4-7-|---------------4-|-5-5-5-5-7-5-7-5-|-----------------|
|----------------|-7-7-7-5-5-7-7---|-----------------|-7-7-7-7-9-7-7-5-|


E E E E E E E E E E E E E E E E E E E E E E E E E E E E E E E E
|-----------------------------------------|-----------------|----------|
|-----------------------------------------|---------7-7-----|----------|
|-------------------------4-5-6-7---------|---4-5-7-----7-4-|-9---7----|
|-5-5-5-5-5-5-5-5-5-0-3-5---------5-5-5-5-|-5---------------|----------|


714 :忘れた:04/02/29 19:27
Q E E E E E E E E E E E E E E E E E E E E E E E E E E E E E E
|----------------|-----------------|-----------------|-----------------|
|----------------|-------------- Q E E E E E E E E E E E E E E E E E E E E E E E E E E E E E E
|----------------|-----------------|-----------------|-----------------|
|----------------|-----------------|-----------------|-----------------|
|-5--5-0-5-4-4-7-|---------------4-|-5-5-5-5-7-5-7-5-|-----------------|
|----------------|-7-7-7-5-5-7-7---|-----------------|-7-7-7-7-9-9-7-7-|


E E E E E E E E E E E E E E E E E E E E E E E E
|-----------------|-----------------|--------------------|
|-----------------|-----------------|--------------------|
|---------4-4-4-4-|-5-5-5-5-7-7-7-7-|-5-5-5-5------------|
|-5-5-5-5---------|-----------------|---------3-3-3-3----|


E E E E E E E E E E E E E E E E E E E E E E E E
|-----------------|-----------------|--------------------|
|-----------------|-----------------|--------------------|
|---------4-4-4-4-|-5-5-5-5-7-7-7-7-|-5-5-5-5------------|
|-5-5-5-5---------|-----------------|---------3-3-3-3----|


E E E E E E E E E E E E E E E E E E E E E E E E
|-----------------|-----------------|--------------------|
|-----------------|-----------------|---------5-5-5-5----|
|---------4-4-4-4-|-5-5-5-5-7-7-7-7-|-5-5-5-5------------|
|-5-5-5-5---------|-----------------|--------------------|


715 :忘れた:04/02/29 19:28
E E E E E E E E E E E E E E E E E E E E E E E E
|-----------------|-----------------|--------------------|
|-----------------|-----------------|--------------------|
|---------4-4-4-4-|-5-5-5-5-7-7-7-7-|-5-5-5-5------------|
|-5-5-5-5---------|-----------------|---------3-3-3-3----|


E E E E E E E E E
|----------------------|
|----------------------|
|----------------------|
|-5-5-5-5-5-5-5-5-5----|

終わり。嫌がらせみたいに醜いな笑。

716 :504言いだしっぺ:04/03/01 23:07
あの、本当に申し訳ないんですけど、昨日車でぶつけられました。
入院中です。今ノートでPCしてます。(個室でよかった)
右足の骨折、鞭打ち、詳細な検査(内臓?)などで2週間は軽く入院!
・・・・・・意識だけは全然はっきりしてるんだけどね。
14日はどう考えても無理になってしまいました。
でも、offはやらねば!・・・・・・でも、負傷箇所が右足なんで筋も切ってるので、完全復活には1ヶ月以上かかってしまいます。
だから、自分はあきらめて皆さんだけでやっていただければと。
ああ、なんか無責任だし、無念だしで最悪ですが、今の感じでは1ヶ月もたってしまっては
そこからまた2ヶ月いや3ヶ月くらい練習しないと筋力が付いていかないと思います。
だから、そこまで皆さんを待たせるわけには行かないので、どなたか幹事を引き継いで
実行してくれる方がいらっしゃるなら、自分はそれが一番だと考えたのです。
選曲など、自分が担当していた分迷惑をかけると思いますが、
offを実行していただくことが先決だと思いました。
ご迷惑をおかけしますが、宜しくお願いします。
スタジオの方は自分の名前で予約してあるので、出来れば自分がキャンセルして、
新しい幹事さんの名前で予約した方が良いと思うので、このスレにご一報下さい。
自分がキャンセル完了したときはすぐにこのスレにまた連絡を入れようと思います。



717 :壁に耳あり、障子にメアリーさん:04/03/01 23:25
これは504による壮大な釣りか!?

718 :504言いだしっぺ:04/03/02 21:35
釣りじゃないよ
ああ、誰かスレに現れてよ(泣)
自分の名前で予約しておいてもスタジオって入れますかね?
それなら、責任押し付けみたいじゃなくて良いと思うけど。
何ならOFFの日に電話で連絡とりあってこういうわけで
皆さんにスタジオ貸してくださいとか言えば良いかな。
それよりは今のうちにキャンセルして新しく誰か幹事になってスタジオ予約してくれれば、
それが一番だと思ったんだけど、違うかな?
いづれにしても、当日いけないことは確実だし、選曲は自分が関わった部分が大きく変更だし
悪いとは思うけど、どうにもならないんだよ。

719 :504言いだしっぺ:04/03/02 21:47
あぁ、本当に誰か現れてよ・・・・・・
自分勝手かもしれないけど、勝手だけど、お願いします


720 :忘れた:04/03/02 22:30
現れてみた。
しかしそれは災難でしたねえ。早く治る事を祈ってます。
オフだけどスタジオは別に本人じゃなくても大丈夫じゃないかなあ。
なんか会員証見たいの作った?それだとそれがないとまずいかもだけど。
でもそうすると幹事さんの名前ばれてしまうかな笑。
まあここあわてずこの先どうするか決めましょう。
俺はとりあえず新幹事を募集するべきかなあと思う。
いないなら延期かな。

721 :忘れた:04/03/02 22:36
ここはあわてず、な。
まあ事故なんだし幹事さんが責任感じることはないと思うよ。
ゆっくりどうするか考えましょう。

722 :521:04/03/03 01:42
なんだか多忙で見てないうちに大変なことに…。

んじゃ幹事代行やります。
504さんには傷の癒えた半年後くらいにリベンジしてもらうと
いうことで。

期間限定で携帯電話アドレス用意したんで、とりあえず
スレ向きでない連絡はこちらにメールください。>504さん
thepillowsearcopyoffあっとまーくezweb.ne.jpです。
あと、いま割と忙しい身なので、可能であればスレは引き続き
仕切ってもらえると助かるんですが。(^_^;;

予約の件ですが、さしあたってスタジオに事情を説明して
ご相談されてはいかがかと。
普通のバンド予約でもリーダーが急用で来られなくなったとか
よくありますし、予約の名義を私に変えれば済むのであれば
それでよろしいのではないかと。

723 :521:04/03/05 00:26
未だ連絡もカキコもなし、と。

504さんの容態が心配ですね。


724 :514:04/03/06 01:37
自分も久々に見たら、大変なことになっててびっくりしました。
504さん、大丈夫ですか?

キャンセルしなくても他に方法はあるでしょう。
どの部屋かさえわかっていれば大丈夫ですよね?
他店も同様とは限りませんが、
吉祥寺の場合は会員証というかスタンプカード程度で
非会員でも利用できます。
いつも受付通らず勝手に入ってますが、もし必要でも
何時から何スタで・・・とか言っておけば問題なさそうです。

>>521
よろしくお願いします。

504さんパートの穴埋めをしなくちゃですね、ということで
とりあえず504さんのみ希望されているパートを拾ってみました。

モールタウンプリズナー→Dr
ロンサムダイアモンド→Dr
Ninny→Ba
Swanky Street→Dr

725 :壁に耳あり、障子にメアリーさん:04/03/06 18:18
バスターズオンザプラネット見たんだけど
スワンキーのソロの時のpeeちゃんの音いいね。
これって
>>694
のMUFF+低音カットの音って考えて良いの?

あとPEEちゃんがRATじゃなくてMD-2使うようになったのっていつから?
トワイライトの時ってもうかわってた?

726 :504言いだしっぺ:04/03/06 21:09
どうもご心配おかけして申し訳ないです。
とりあえず自分は色々と検査をしましたが、
足と鞭打ち以外は重傷ではないようです(殴)

さて、一番問題なのは、自分が担当していたパートです。
モールタウンプリズナー→Dr
ロンサムダイアモンド→Dr
Ninny→Ba
Swanky Street→Dr
one life→vo

ですが、Drはお二人に簡単な8ビートで対応してもらうようにと、
メールを521氏に送りました。
変わったドメインだったので受信拒否にはならなかったでしょうか?>521
ちなみにドメインは「@trip.as」です。

voは手が空いている方に歌詞カード見て歌っていただくよう、お願いします。
ここで集まらなかった場合は現地で対応できるように
CDジャケを持っていくといいのかもしれません。
↑の方で決まってなかったタミヘも同様でお願いします。

重要なのがninnyのBa。
弦楽器の方、引き受けていただければ幸いです。
タブ譜について。もちろん自分は弾くことはできるんですが、
何せ楽器類持込はご遠慮の病院らしいので詳しいフレットまでは思い出せません。
可能な限りうpしようと思いますが、詳細でないことをお許しください。


727 :忘れた:04/03/06 21:20
無理しないで曲削るのも手だよな

728 :521:04/03/06 21:38
えーと、まだメール来てないです。>504さん

着信拒否とかは一切してないので、@ezweb.ne.jpの前の
やたら長い部分のタイプミスかと…。

申し訳ないですがリトライお願いします。

729 :533:04/03/06 22:52
one life→vo
では私がこれ引き継ぎます。

730 :514:04/03/06 23:44
>504さん
ご無事でよかったです。
コードが鳴ってる程度でよければ
タミヘvo+SGr挑戦してみようかな、という気になってますが。

731 :533:04/03/08 21:33
521さん、504さんからのメールは届きましたか?
その後書き込みがないので、気になっています。

732 :521:04/03/09 00:28
あわわ。
すみません。メールはいただいてます。
当日のスタジオ予約の件に関しては問題なさそうです。

あとは曲の問題なんですが…。
まず504さんドラム担当曲について。
swankyは不安ながらも私が引き継ごうと思います。
残りの2曲について、504さんが>>726で「8ビートで」
と書いてますが、それでやりますか?>他担当の方々

他の曲の練習もあるんで、私だと正直それでも回数とか
覚えてこれるか微妙なんですが(汗)。
Ninnyも含めて、「無理せず削る」というのは私も
アリだと思います。


733 :521:04/03/09 01:02
あと集合のこととか決めてないんですが、現地
(部屋)にいきなり集合のノリでしょうか。
事前に集合という話でなければとりあえず、私は
少し早めに着いて13時になったら入るつもりです。

昔Rinky(別店舗)の会員だったんですが、あそこは
ドラムがシンちゃんとおなじTAMAなのがちょっと
うれしいですね。

734 :521:04/03/09 01:13
まだあった。
いちおう私もMD持ってって録音して後日うpしようかと
思ってましたが、よく見たら>>703さんがノーパソ持参を
申し出てくれてますね。
お願いできますでしょうか。

あと残りの気になってることを、504さんに
メールします。
…明日にでも。(^-^;;


735 :533:04/03/09 01:34
521さん了解です。あと一週間ですね、AXではpeeちゃんのギターを
ほぼずっと眺めていました。
当日はよろしくお願いします。

736 :504言いだしっぺ:04/03/09 22:53
〜*〜*各パート担当希望一覧(3月9日時点)*〜*〜
4 モールタウンプリズナー→Vo574、MGr574、SGr647、Ba527、Dr●
Dr ターミナルヘブンズロック→Vo514、MGr574、SGr514、(Ba514メンバー氏)、Dr521
4 ロンサムダイアモンド→Vo574、MGr527、SGr574、(Ba514メンバー氏)、Dr●
Gt I think I can→Vo574、MGr514、SGr647、Ba527、Dr521
Gt カーニバル→Vo574、MGr514、SGr647、Ba527、Dr521
Gt アドバイス→Vo574、MGr514、SGr574、(Ba514メンバー氏)、Dr686、
4 hybrid rainbow→Vo533、MGr514、SGr533、Ba527、Dr521・686
Gt little busters→Vo533、MGr514、SGr533、Ba527、Dr521
4 Ninny→Vo574、MGr574、SGr●、Ba●、Dr521
Gt one life→Vo533、MGr574、SGr533、Ba527、Dr686
2 Swanky Street→Vo574、MGr514、SGr574、(Ba514メンバー氏)、Dr521
4 ride on shooting star→Vo574、MGr527、SGr647、(Ba514メンバー氏)、Dr686

決まっていないものは●としました。
>574氏、>521氏には悪いと思うけど、自分も削るならninnyだと思います。

737 :521:04/03/09 22:57
>>735
いえこちらこそよろしくおねがいします。(´∀`)

で。よく考えたらメールするまでもないことなので
504さんにここで質問しちゃいます。

最終的に8人か9人くらいの人数でスタジオ利用することに
なると思うんですけど、スタジオにどんなことするのか
説明ってしてあります?
どう見ても2バンド分の人数なので、もし説明してないと
「原則1バンドでの利用」の規約にひっかかって注意される
かもしれないなあと。

あと、504さんのベースの使い回しができなくなりましたが、
そのへんのところは大丈夫でしょうか。


738 :514:04/03/09 23:46
521氏
スワンキーよろしく頼みます。
この曲って合わせるの難しそうですが、頑張りましょう。

>>737
昔、大所帯バンドでスタジオ入った時
10人以上いたので、そのへんは大丈夫だとは思いますよ。

ベース使い回しのことに関しては
たぶんウチのベース氏のを貸してもらえるでしょう。

739 :514:04/03/11 12:59
あの〜重ね重ね本当に申し訳ないのですが・・・
実はのベース氏が昨日から肺炎で入院していました。

病気のことはよく知らないのですが
日曜日までに回復の見込みがたたなかった時のことを想定して
話を進めた方が良さそうです。

Baパートの穴埋めですが
●スワンキー
●アドバイス
●ロンサム
●ライドン
●タミヘ
以上5曲、お手空きの方でBaやっても構わないって方いらっしゃいませんか?

スワンキー
アドバイス については、
どなたかルート弾きで構わないので、弾いていただけると本当にありがたいです。

ロンサム
ライドン については
最悪の場合は、自分は手が空いているので
かなり恐ろしいですが、ルート弾きで対処できないこともないです。
タミヘ もSGrなしにしてもでも何とかなりそうなら、歌いながら弾きます。

曲削る、ってのもありますが、できるだけのことはやりたいな、と思ってます。

本当、すみません。

740 :514:04/03/11 13:31
あと、ベース使い回しの問題ですが
スタジオで\100/hで貸し出しできるみたいです。

741 :壁に耳あり、障子にメアリーさん:04/03/11 21:49
なんかこのスレに悪霊でも取り憑いてるんじゃない?w
オフに参加する人が次々と病気や怪我に見舞われたりして…。

742 :527思い出した:04/03/11 21:54
>>739
あらーまたしても。くれぐれもお体を大事になさるようお伝えください。

で、Advice、Swanky、Terminalは俺がベースやりましょう。
AdviceとTerminalは一応耳コピやってますし。
Swankyはこれからなので適当に笑。
LonesomeとRideは残念ながら手が2本しかないので無理笑。


743 :彼女は昨日:04/03/11 21:59
すいません、しばらくこられなくて。
ええっとB足りないもの、ルートゴリ押しでよければ全て私担当させていただきます。

ターミナルSideG&歌も逝けます。がサビは漏れにとってはちと高めなので
その日の調子次第で歌えたり歌えなかったりw
メルアド晒しておきますので何かありましたら連絡いただければと。
ipod@melu.jp

いいだっぺさん、怪我の一日も早い回復、お祈りしております

744 :彼女は昨日:04/03/11 22:04
ああ、書き込む前にリロ汁!の法則が…汗

んでは漏れはライドソのBをば。
Lonsomeは申し訳ないのですが聞いた事がないので
コード譜をいただければその場でお茶を濁します。はい

745 :彼女は昨日:04/03/11 22:20
あああ!ターミナルじゃない!
バビロンだ!打つです。すいません。いってきます

746 :527思い出した:04/03/11 23:44
>>745
バビロン?バビロンはリストに入ってないような。

Swanky聞いてるけどこれベース結構凶悪ねえ。
カーニバルICANOneLife系っぽいけど中でも一番動き回るような。
耳コピしてTabに起こすまでならまだしもその上覚えて
かつきっちり弾けるようになるのは無理そう。
なのでかなり手抜きなコピーにしそうです笑。

747 :527思い出した:04/03/11 23:50
いややっぱりカーニバルは同系じゃないきがする。
今聴きなおしたら結構きっちりしてた。
SwankyICANOneLifeは同系だな。なんか好き勝手弾いてる感じが似てる。


748 :527思い出した:04/03/12 00:01
半端だけど耳コピねたを。OneLifeのベース。

日常の闇に〜

E E E. S S S E S S E E E E. S S S E E E E Q E E Q E E Q E S Q..
|-------------------------------------------------|-----------------------|
|-------------------------------------------------|-----------------------|
|-5-5----3-5p3h5-5p3---------------7-7------------|--------3-3--/3-1------|
|-----5--------------5-0-0-/7--7-7-----7-0-1-1--1-|-3-3--3-----------3----|

ギターソロのとこ
E E E. S S E E S S S E S S Q S S E S S E
|------------------------------------------------|
|------------------------------------------------|
|------------5-5-3-0-3-/7-7-7--------------------|
|-0-0-5--5-5------------------7\--0-7-7-7-0-0----|

E E E E E E E E E E S E S E E E E
|-----------------------|----------------|
|-----------------------|----------------|
|-----------------3-3-3-|---3-1-1-0------|
|-1-1-1-1-3-3-3-3-------|-3---------3----|

E E E. S S E E S S S E S S Q S E S E
|-------------------------------------------|
|-------------------------------------------|
|-5-5--------5-5-3-5-5-7-7-7----------------|
|-----5--5-5-----------------7\--0-7-7-7----|

749 :514:04/03/12 00:08
あぁ皆さん、ありがとうございます。とっても助かります。
時間があれば明日面会に行く予定です。
詳しいことがわかったら、また書き込みますので。

>>527
そうなんですよ、この曲って全体的に難易度高いですよね。特にベースは。
引継いでいただけるだけありがたいですから。

>>彼女は昨日氏
それではタミヘSGr&Voもお願いします!
・・・と思ったんですがバビロンと間違えてたってことですよね?
じゃ、ロンサムは弾けるように準備だけでもしておきます。

>>741
自分もそれは思いましたよ。

750 :521:04/03/12 00:44
リズム隊に忍び寄る魔の手。
最初から最後まで(まだ終わってないけど)ベースに
苦労するオフですね。
ピロコピらしいといえばらしいですけど。
ギター各氏の「じゃあ俺が」的反応が頼もしい限り。

>>514さん
ベース氏にお大事にとお伝えください。

>>703=彼女は昨日さん
まずはこの言葉を贈らせていただきます。

( ´∀`)<まあモティツケ

この状態だとおそらく当日まで担当が流動的になると
思いますので、出来る曲は練習しておいていただくのが
吉かと。
バビロンならむしろ私は望むところですが(笑)。


751 :514:04/03/12 23:45
うちのベースの容態ですが、今日面会に行ったら
最低1週間の入院が必要だということだったので
やっぱり皆様のお世話になることになりました。
>>527氏、>>彼女は昨日氏 どうぞよろしくお願いします。

今回はごめんなさい、ありがとうございます。
次回は是非参加させて下さい。・・・と言っていました。


752 :521:04/03/13 18:25
ついに明日ですね。

いろいろと不安はありますが、全員が楽しめるようがんばりますので
よろしくおねがいします。
当日緊急の用件がある方は、>>722のアドレスにメールを
ください。


さて、最後の練習に行くとするか。

753 :彼女は昨日:04/03/13 21:14
スレ怪我し、ほんとすいませんでした。
>521さん
こちらこそよろしくお願いします。
えっと、録音のことなんですが、特に録音用マイクとかある訳でなく
ノートマシンの内蔵型での録音となりますのでないよりかはマシってレベルです
ですのでMDがあるなら、お願いしたいのですがいかがでしょうか?

754 :521:04/03/14 00:05
>>753
了解です。

というか、私が持っていくのは生MDだけで、
録音はスタジオの機材でやるんですけどね。(^_^;

755 :533:04/03/14 01:04
>>521
下北沢のrinkydinkstudioでPM1:00から6部屋ですよね。
楽しみです。

756 :壁に耳あり、障子にメアリーさん:04/03/14 09:48
参加はしませんがずっとロムってました。
レポと音源のうp楽しみにしてます。

757 :彼女は昨日:04/03/14 11:09
ちょっと問題発生。
免許がねぇ…落としたかパクられたか…

758 :527思い出した:04/03/14 11:20
俺も若干問題発生。チューナーどっかいった笑。
まあしょうがないか。
んじゃそろそろ出ます。
黒いハードケースのギターとこげ茶ソフトケースのベースを
持ってる間抜けが俺です。

759 :彼女は昨日:04/03/14 12:28
いや、まじシャレになってないっす
免許なくしました。警察逝ってきます。
ドタキャンですいません

760 :647:04/03/14 18:38
オフ会参加者の方はお疲れ様でしたー。

えー、簡単にレポートを。
総勢7名。ニニー以外は足りないパートをみんなで補いつつ、
なんとかできました。成功と言って良いんじゃないでしょうか。
でも本来はスレ違いなのでサイトでも作るか、とゆう感じです。




761 :521代行幹事:04/03/14 18:40
セッションオフ無事(?)終了しました。
まずは報告まで。

参加された皆さん、おつかれさまでした。

諸々はまた後日。

762 :574:04/03/14 18:47
無事カブで帰宅できました〜
今日はお疲れ様です
遅れてしまってすみませんでした^^;

763 :527思い出した:04/03/14 19:36
お疲れでした。
ベース沢山弾けてうれしかったです。いや皮肉でなく本当に笑。
ギターも結構弾けたしふっふーコーラスも入れたしとてもとても面白かったです。
ただ一点ギターがばかみたいの重たく持ち運びで握力がよわりぎみなのだけ不満です笑。
是非またやりましょう。

764 :533:04/03/15 00:55
みなさんお疲れ様でした。
うまい人たくさんいて、すごく勉強になりました。
次回offまでに練習して、リードギターにも挑戦してみたいですね。
>>574さん
Power Tab Editorです。
http://www.forest.impress.co.jp/article/2000/02/28/powertabeditor.html
527さんが上のほうで貼ってましたね。
自分もうpしたことがまだないので、これからは耳コピに精を出そうと思います。

765 :514:04/03/15 22:37
先日はお疲れさまでした。
あがりすぎで、相当にパニクってました。
しょっぱなからチューニング直すのさえ忘れてた程で
みごとにダメダメ君でしたね。本当、すみません。
リベンジしたい曲だらけでしたが(特にカーニバルあたりは・・・)
次回は眠てても弾けるくらいの勢いで、度胸をつけて落ち着いて挑みたいです。

そのうち「THE COVER」(仲野茂さん主催のイベント)みたいなのりで
企画ライブとかできたら楽しそうだな、と思いました。

766 :壁に耳あり、障子にメアリーさん:04/03/17 21:05
荒氏に逝こう

http://www.geocities.jp/pillows_vaio/index4.html

767 :壁に耳あり、障子にメアリーさん:04/03/18 00:24
>>766
別にいいじゃん、そっとしといてやれよ

768 :壁に耳あり、障子にメアリーさん:04/03/18 00:45
でも漏れもみたが、そこのタブここの引用じゃない?

769 :壁に耳あり、障子にメアリーさん:04/03/18 01:02
ってことは、ココのすれ見てるって事だろうし
そこについて何か書けば、そこの管理人も、ココにご一報したり、
あわよくばココのまとめサイトになってたりしないかなどと
楽天的になってみるテスト

770 :壁に耳あり、障子にメアリーさん:04/03/18 01:48
ところでオフ会の音源うpマダー?

771 :壁に耳あり、障子にメアリーさん:04/03/18 15:27
>>766
サイト管理人です。
BBSにて連絡を下さった方並びにTABの作成者様には不愉快な思いをさせてしまって申し訳在りません。
768さんのおっしゃる通り、TABは全てこの掲示板の引用です。
個人的には掲示板の中に在るタブ譜を整理しているつもりだったのですが・・・
できれば私のHPにおいて整理させて頂きたいのですが、不愉快でしたら即刻作成者様からの許可が下りないものに関しては削除させて頂きます。
申し訳在りませんでした。

772 :521:04/03/18 23:41
もうしわけないですが、録音うpは気長にお待ちください。

交通事故や肺炎に比べればなんでもないですが、
オフ終了と同時に風邪で寝込んでみたり。


773 :壁に耳あり、障子にメアリーさん:04/03/19 11:38
なんかこのスレ、よくないもの憑いてる?w
みなさんお大事に

774 :504:04/03/23 21:23
おかげさまで本日退院してきました。
ずっとスレに出て来なくてすみませんでした。
これからまたドラムの練習を出来ると思うと感無量です。
オフ会実行して頂いた皆さん、>521氏に感謝です。

775 :521:04/03/25 23:12
>>774
退院おめでとうございます。

私は504さんの尻馬に乗っただけですので、
礼には及びません。

参加面子は(失敗リベンジ含めて)次回に期待を
しております。
次こそいっしょに楽しみましょう。


週末にオフ録うぷ予定です。

776 :壁に耳あり、障子にメアリーさん:04/03/26 03:03
このスレいつの間にか一年経ってたのね。

777 :代行幹事521:04/03/28 23:27
連続カキコ注意報。
二週間前のオフ会関連のレポートなどです。
9レスほど続きます。
興味のない人にはスレ汚しすみません。

連続投稿規制とかにひっかかったら笑ってください。

778 :代行幹事521:04/03/28 23:28
まずは当日のセットリストから。
ハイブリッド レインボウ
Vo.533 MGu.514 SGu.533 Ba.527 Dr.686
ターミナル・ヘヴンズ・ロック
Vo.514 MGu.574 SGu.514 Ba.527 Dr.521
モールタウンプリズナー
Vo.574 MGu.574 SGu.647 Ba.527 Dr.521
カーニバル
Vo.574 MGu.514 SGu.647 Ba.527 Dr.521
I think I can
Vo.574 MGu.514 SGu.647 Ba.527 Dr.521
Swanky Street
Vo.574 MGu.514 SGu.574 Ba.527 Dr.521
Advice
Vo.574 MGu.514 SGu.574 Ba.527 Dr.686
Ride on shooting star
Vo.574 MGu.574 SGu.647 Ba.527 Dr.686


779 :代行幹事521:04/03/28 23:29
ONE LIFE
Vo.533 MGu.574 SGu.533 Ba.527 Dr.686
LITTLE BUSTERS
Vo.533 MGu.514 SGu.533 Ba.527 Dr.521
ロンサムダイアモンド
Vo.574 MGu.527 SGu.574 Ba.514 Dr.521
ハイブリッド レインボウ
Vo.647 MGu.527 SGu.574 Ba.686 Dr.521
Ride on shooting star
Vo.574 MGu.527 SGu.574 Ba.686 Dr.521
ONE LIFE
Vo.521 MGu.不明 SGu.533 Ba.527 Dr.686
ターミナル・ヘヴンズ・ロック
Vo.521 MGu.574 SGu.514 Ba.527 Dr.686
ハイブリッド レインボウ
Vo.533 MGu.514 SGu.647 Ba.527 Dr.521
Advice
Vo.574 MGu.527 SGu.574 Ba.514 Dr.686


780 :代行幹事521:04/03/28 23:29
ではレポです。
スタジオ一番乗りは533さん。あとは647、521、527、686、514、
574さんの順でした。
さすがにこの人数で初めてのスタジオだと機材のセッティングに
手間取り、演奏が始められたのは入室してから30分くらい立って
からでした。
準備をしているところで514さんが到着。
最初のハイブリが終わったところで574さん到着。
欠席表明していた人以外が全員集まったので、ほっとしたところで
本格的にセッション開始。


781 :代行幹事521:04/03/28 23:31
事前に決めていた曲をとりあえずこなしてしまおうということで、
メンバー変更が少なくなるような順番でまずひと通り演奏。
その後は、演奏済みの曲をリテイクしたい、または違う楽器でやって
みたいという人が手を挙げて、それを演るといった流れでした。
合間合間にはお遊びもしていて、各自勝手に好きな曲を弾いてると
他の人がそれに合わせていつのまにかセッション状態、なんてことも
しばしば。RUSHとかバスストとかやってましたね。


782 :代行幹事521:04/03/28 23:32
トラブルは少ない方だったと思いますが、それでも「ドラム椅子が
高さ調節不能(常に一番低い)」とか「常に原因不明のハウリング」
とかに悩まされました。特に椅子はスタッフさんが交換に来てくれる
までずっと低いままだったので、前半の曲がリズムよれ気味なのは
椅子のせいにしたいところですよね、686さん。


783 :代行幹事521:04/03/28 23:34
あとはなんでしょう。耳コピスレ的に興味がありそうなのは機材かな。
残念ながら私はギターに疎くて詳しく書けないのでどなたかフォローを
おねがいします。
ドラムのスタジオ装備利用はTAMAの三点とSABIANのシンバル類でした。
詳しくはスタジオのサイトに。
スネアは686さん持参のラディック・メタル(でしたよね?)。
ペダルは私521持参のアイアンコブラ(HP900RTWの右足だけ(汗))。
スティックは686さんがTAMAのH2145B、521がPromarkの5Aナチュラルです。


784 :代行幹事521:04/03/28 23:35
終わった後は適当な店を探して、ご飯食べながら雑談をしました。
話をしてみると出身地がバラバラだったり、年齢が上から下まで10歳
以上差があったり、音楽の趣味もたぶん分散傾向(笑)という、
いかにもピロスレらしい幅広さでした。
「次回があればまた参加したい」という人ばかりでしたので、
504さん、よろしくおねがいします。(^-^)


785 :代行幹事521:04/03/28 23:37
で、当日録音の音源をうpしますた。
全部上げるのもアレなので、ダイジェスト版です。
下記の点を考慮しつつ、あまり期待せずに聴いて頂けると助かります。
・同じ曲を何回かやったものはムリヤリツギハギ。
・アンプ配置のバランスが悪く、よく聴こえないギターがある。
・マイクボリュームがおおざっぱなので、ボーカルが聴こえにくい。
・デフォでハウってる。

ロダは2ちゃんロダ。パスはメル欄(sage抜き)です。
f0c3a5025453.zip, 24f1fbf292cc.zip, 5163c988bc98.zip
暗号付Zipなのでマカーの人はたいへんかもしれません。
すみません。

質問があればどうぞ。
答えられるかどうかわかりませんが…。


786 :代行幹事521:04/03/28 23:38
…投稿しながら前の投稿で誤変換を発見して鬱。

787 :壁に耳あり、障子にメアリーさん:04/03/29 01:17
トップのアドレス貼ってもらえませんか?

788 :壁に耳あり、障子にメアリーさん:04/03/29 02:01
>>786
落としても中身が無いのですがどうすれば聴けるんですか?

789 :壁に耳あり、障子にメアリーさん:04/03/29 07:19
代行幹事さん聞かせてもらいました!!
確かにVoが聞きにくいのが残念ですが超楽しそう!!
ずっとロムってたんだけど思い切って行くべきだったかな・・・。
参加された皆さんお疲れ様です。

790 :壁に耳あり、障子にメアリーさん:04/03/29 08:22
>>785
パスを入れても解凍できません。sage以降をコピペじゃダメなんですか?

791 :壁に耳あり、障子にメアリーさん:04/03/29 09:04
>>521
うpおつです。めっちゃ楽しそう!俺も弾きてー!って感想です。
良い集まりになったみたいですね。良かった良かった。

792 :壁に耳あり、障子にメアリーさん:04/03/29 09:21
>787
ttp://up.isp.2ch.net/up/

793 :壁に耳あり、障子にメアリーさん:04/03/29 12:26
前にも>>386で出てるけど
アドバイスの間奏のところ何やってるんでしょうか?

CD聞いてもoff_digest2聞いてもわからない( ´Д`)

794 :壁に耳あり、障子にメアリーさん:04/03/29 16:37
いいなー、すごいなー、と思いながら聴いています
俺もいつか弾いてみたい

795 :壁に耳あり、障子にメアリーさん:04/03/29 17:24
漏れも解凍できない…_| ̄|○
うpしてもらう立場では何も言えないけど、
エロ画像じゃないんだからパスとかひねる必要ないのでは^^;?
音源楽しみに待っていたので残念です。

796 :527:04/03/29 23:49
>>521
作業有難うございます。繋ぎ目の綺麗さがとても良いと思いました笑。
折角なので俺も音を聞きながら自分の思い出をつらつらと。
機材について。弦はFender 3:Gibson 2:YAMAHA 1:レンタル 1。中でも光るのはリストを
見ると判るよう全編に活躍する俺の2000円YAMAHAベース(メガデスシール付)。
これに張られる弦は驚くなかれ8年ものです笑。でも意外と普通に聞こえるよな笑。
アンプ。については詳しく判らないで申し訳ないけどマーシャルとJCとFender。
あとベースはアンペグ。音源でも幾つか聞こえる俺のはFenderの奴だけど
結構良い音してるよね演奏はさておき。さすが我が自慢のギター。
エフェクター。全員Bossだったっけ。マルチが2にコンパクト1だったか。
ちなみに俺はなし。なのでFenderのアンプではゲインちょっと足りてません。
ハイブリッドレインボウのギターソロのときは手でアンプのボリューム上げました笑。
そのほか。何気に俺は皆勤でちょっと自慢。あとみんなピロウズ詳しくて偉いと思いました。
あとなんかPVで自分ちのすごい近所が写ってるって話がちょっと面白かったです。
あと何度もいうけどギター重かったです。でもギターもベースも弾けてとても満足でした。
そんなわけで俺的には大成功だと思います。


797 :521:04/03/30 02:03
データこそデジタルですが編集は限りなくアナログでした。
まぁラジカセでももうちょいスムーズにつなげそうなもん
ですよねぇ。

誰にでも聴ける状態にするのは抵抗感ありまくり(苦笑)なので
暗号付きにしましたが、パスに日本語混ざってるとダメな人も
いるのかな。
>>785
そのやり方でOKのはずですが。

落とせなかったりうまく解凍できなかった人がいるようなら
また週末あたりに上げ直します。


798 :521:04/03/30 02:04
×
>>785


>>790

799 :574:04/03/31 04:07
521さん、幹事代行および編集などなど、お疲れ様でした
こちらも適当に機材などを紹介しますー

ギターはFender(JAP)MUSTANGです。
ぴーちゃんの色よりもう少し薄い、バージンベージュみたいな色です
エフェクターはBOSSのマルチME30です(中学生の時に買った長年愛用のもの^^;)
アンプは上で紹介して貰ったとおりです。

使うマルチで設定した音は大体3つくらいで、歪みなし、ちょい歪み系、FUZZ系です
エフェクターを使うのでアンプのゲインはあまり上げません。
あげるとはおりまくってえらい事になりやすいし、歪みすぎるので
AメロBメロサビあたりはちょい歪み、もりあがるサビギタソロはFUZZを使ってます
ぴーちゃんもたぶんそんな感じかなーと勝手に思ってます

ちょい歪みはクランチハードあたりで、ちょっと強めに歪ませ、EQはミドル高めで、ムスタングの安っぽい音がひどくならないよう
高音は抑え目にしてます。
FUZZ系は、そのまんまFUZZをかなり強めに歪ませて、
EQは低音強めにして、腹に響く感じの音に
アンプの設定はちょい歪みと同じような感じにしてます
これくらいでしょうか〜
アンプはFenderのが一番使いやすかったです。ピロウズっぽい音が結構でてくれました

とっても楽しかったので、第二回も是非やりましょう〜
久しぶりに自分もバンド組んでやりたいなぁ



800 :504:04/03/31 18:05
皆様お疲れ様です。
参加できなかったのが悲しくなるような音源ありがとうございます(殴)
今度は参加します2回目やりましょう。自分が言う立場じゃないかもですが。
こんなに楽しそうな感じなら、下北通り越して横浜とか、藤沢とかまで出向しても構わないかもw
もっと多くの人が参加できるようにしたいな。

Grは何も詳しくないですけど、PEEちゃんの音出てますねw
唯一無二な音色だと思ってたので感激しました。
DrもTAMAだ〜って音がして嬉しくなってしまった。
みなさん上手な方が多いですね。自分はまだ当分練習できないんで
2年ぶりに復活させたのが戻ってしまうのですが・・・・・・やるしかないっすねw

801 :504:04/03/31 18:13
いきなり全然関係ないことですが、TAMAで思い出深いのが、
都内のライブハウス「Demension」でサークルのLIVEをしたときのこと。
あそこはドラムがTAMA(X-JAPANの古巣だから)で、その時はじめてTAMAのセットを叩いたんです。
LOWTOMにブルーのオイル入りEVANSが張ってあって、そのTOMを叩いたとき自分の好きな音がしましたw
そう、シンちゃんのセットと同じ音だ!!!!!ってね。
ランクが低いセットでも、鳴らすのが難しい(歪みがあるetc)場合でも、
最強じゃん(あくまで自分の好み上の問題ですが)って思った。
ついでにスネアはブラスだったんですが、やはりpillowsの音だとw
(できればブロンズならもっと最強だとw)
おかげでそのLIVEでは自分でも驚くほど失敗しなかった(宗教か?)
こんなに感動してる自分って・・・・・・逝ってきます・・・・・・


802 :壁に耳あり、障子にメアリーさん:04/04/01 06:42
ビューティフルピクチャーは装飾のフレーズもソロもバッキングも
美しすぎて弾いててため息出るますね
耳コピるの大変だけど

803 :533:04/04/01 09:41
521さん、おつかれさまです。

編集版パスがコピペできず、解凍できないみたいです。
なので脳内編集して聞いてみたのですが、全員の参加部分をピックアップし、
なおかつ良い部分を選びとる手腕に感服しました。

ギターはバッキングなので、下手さが目立たずよかったです。
使用ギターはFender USAのストラト、エフェクターはBOSS ME-8 アンプは
Fenderツインリヴァーブを歪ませず、オーバードライブを70%くらいでかけてました。

また次回楽しみにしてます。
>>574
俺もバンド組みたいッス。


804 :壁に耳あり、障子にメアリーさん:04/04/01 16:43
ハイブリのAメロ、peeが何してるかわからない。

講座見てるのに・・・・_| ̄|○

805 :壁に耳あり、障子にメアリーさん:04/04/01 20:54
あー、俺も参加したかった_| ̄|○
ピロバンド区みたい

806 :壁に耳あり、障子にメアリーさん:04/04/02 21:54
弱耳コピねた。
Adviceは基本のリズムは○○×○を繰り返すけど
入りが○○○×ってなってて紛らわしいと思ってたけど
She is perfectも微妙に嫌がらせだとさっき気づいた。
こっちは入りが○○×○だけど基本は○×○○。

807 :壁に耳あり、障子にメアリーさん:04/04/02 23:30
白夏のギターも注意して弾いてないとイントロの途中でズレるよね

808 :壁に耳あり、障子にメアリーさん:04/04/03 00:18
ムーンマーガレットAメロのコードって、G→Bm→C→G→F→Dで合ってる?
あとBメロとサビ誰か教えてください

809 :521:04/04/03 15:03
ダイジェスト上げなおしました。

パスはメル欄からsageとその後ろのスペース抜きで。

/up/ec0e03c025f8.zip
/up/e5035bce454b.zip
/up/ca5dabc6a681.zip


810 :壁に耳あり、障子にメアリーさん:04/04/03 17:23
ちょっと耳コピと関係ない質問があるんだけど、
本スレよりまだこっちの方が回答率高いぽいのでこっちで。

PEEちゃん、ハイブリ講座でCadd9のルートを親指で押さえてるけど、
あれってpeeちゃんの手が大きいから?それともムスタングだから?


811 :壁に耳あり、障子にメアリーさん:04/04/04 17:56
>>809
ファイルやっと探し当てたのにダウソできない。・゚・(ノД`)・゚・。

812 :壁に耳あり、障子にメアリーさん:04/04/05 16:44
自分は楽器とか素人なんですけど、
ピロウズのコードって実際そんなに複雑なんですか?
コードブックが売られていないらしいので。









813 :壁に耳あり、障子にメアリーさん:04/04/05 17:21
さわおが弾いてるコードは全然複雑ではない。
しかしそこにPeeちゃんのギターが重なるといろいろややこしいことになる。

814 :壁に耳あり、障子にメアリーさん:04/04/05 17:39
天才なんですね真鍋さんって、布袋さんとかよりもすごい?

815 :壁に耳あり、障子にメアリーさん:04/04/05 23:32
どうなんだろうね

816 :壁に耳あり、障子にメアリーさん:04/04/06 06:29
さあ

817 :壁に耳あり、障子にメアリーさん:04/04/06 15:32
どっちかっていえば布袋のほうが高いね。背が。

818 :521:04/04/06 23:40
>>811
んじゃ今週末にもう一回だけ上げます〜。

819 :壁に耳あり、障子にメアリーさん:04/04/07 15:58
>>818
お願いします。

820 :壁に耳あり、障子にメアリーさん:04/04/07 19:40
peeちゃんのほうがかわいいよ。

821 :壁に耳あり、障子にメアリーさん:04/04/10 00:49
ピロウズっぽいギターの音をお手軽に出すならOD-3をフロントで鳴らして
GEで補正するのが簡単でいいよね。
ピロウズっていうとBD-2っていうイメージがあるけど
あれだと太い音が出せるいいアンプがないと厳しい。
確かにその組み合わせの方がいい音出せるんだけどね。

822 :壁に耳あり、障子にメアリーさん:04/04/10 12:06
オレンジって普通のスタジオには、めったにないんで
代りにどんなアンプ使えばピロウズっぽい音出せますか?
ムスタング使用です。

823 :521:04/04/10 23:00
オフ音源上げ直しました。

パスは前回と同じです。
d0ae1f854c91.zip
6fc32cc711d7.zip
bd0aeb06eb18.zip

欲しがる人がそんなにいるとも思えませんが、
とりあえず今回はこれで打ち止めってことで。

聴いて共感を覚えた人や不満を覚えた人は、
是非次回参加してみてください。(^-^)
では。

824 :壁に耳あり、障子にメアリーさん:04/04/11 02:41
オフ音源って言うより
普通にピロウズのカバー音源として聴いちゃってます。
ブートっぽい音質も楽しげで逆に良い。みんな上手いなー

825 :壁に耳あり、障子にメアリーさん:04/04/11 22:56
>>823
何度もうpしてもらってすみませんが、何でコピペで解凍できないのか分かりません…。
俺だけかなあ?他に解凍できない人います?何か特別なやり方があるんですか?
音源聴きたいよぉー

826 :壁に耳あり、障子にメアリーさん:04/04/11 23:07
>>825
解凍ソフトが悪いのでは?
俺はeo使ってるけど解凍できたよ。

827 :壁に耳あり、障子にメアリーさん:04/04/11 23:16
>>826
eoというソフトを使ってみたら解凍できました。
ありがとうございました。

828 :壁に耳あり、障子にメアリーさん:04/04/12 21:33
>>826
ナイス!ビンゴだ!

829 :壁に耳あり、障子にメアリーさん:04/04/15 18:55
つうか、2回目はやらないの??
レス少なくなってるし、 あげあげ
つうか、このスレでおフカイの話題するのはありなのか??
あげあげ


830 :壁に耳あり、障子にメアリーさん:04/04/15 19:04
漏れも前回参加できなかったので、やりたいポ

831 :さわ-おになりたい:04/04/15 20:47
初心者でスミマセン...。
KOOL〜時のPeeちゃんのギターて
どのエフェクターで鳴らしているのでしょうか?(汗

832 :壁に耳あり、障子にメアリーさん:04/04/15 22:02
弱耳コピネタ
誰の趣味か知らないけどPillowsにはAm->A/C#というコードがちょくちょく出てきます。
これのときって妙な感じがあってなんつーかこう上に引っ張られる見たいつーか
独特のテンションつーか進行なので
曲聴いててなんか引っ張られるー、って思ったらA/C#弾いてみよう!

833 :壁に耳あり、障子にメアリーさん :04/04/18 11:27
2回目開催きぼんぬ!!
つうか、504、521が来ないとこのスレあがらねぇなw

834 :壁に耳あり、障子にメアリーさん:04/04/19 22:21
つーか開催キボンヌしてるヤシらは幹事降臨待ちなのか?

504はさすがにまだそこまで回復してないんじゃないか?

835 :壁に耳あり、障子にメアリーさん:04/04/20 20:40
誰か九州でやらない?オレ下手だけど参加してみたい

836 :壁に耳あり、障子にメアリーさん:04/04/22 00:24
北関東は?

837 :壁に耳あり、障子にメアリーさん:04/04/23 21:58
漏れ北関東だが、楽器出来ないよ;
なんとなく、504と836しか集まらないのではと・・・・・・。
北関東っても、広いしねぇ。宇都宮でやるとしても、群馬、茨城から来るのは大変!
妥協して春日部あたりでやれば、熊谷、大宮、栗橋、大田、館林、古河、加須、小山、宇都宮から行ける罠。

838 :壁に耳あり、障子にメアリーさん:04/04/24 01:37
>>837
今からギター買ってきて練習するんだ!3ヶ月もあれば簡単な奴なら弾けるようになるよ。
どっかのクレイアニメみたいにがんばれ。

とか言ってる俺は関西人_| ̄|○

839 :壁に耳アリ、障子にメアリーさん:04/04/24 16:27
>>837
漏れも初めて3ヶ月くらいだが、カーニバルのリフくらいなら
できるようになたぞ。
がんがれ!

840 :Tくん:04/04/26 00:57
はじめましてこんばんは。ピロウズのコード探していたらここにたどり着きました。誰か[ライド」のイントロコピーできましたか?出来ているなら教えて下さい。

841 :壁に耳あり、障子にメアリーさん:04/04/26 07:39
>>840
タカターンターン、ジャカジャージャ、ジャカジャージャ、だよ。
がんばって弾けるようになってね。

マジで弾きたいなら過去ログ読みなさい。

842 :壁に耳あり、障子にメアリーさん:04/04/26 18:31
>>841
ターンが一個抜けてるw

843 :壁に耳あり、障子にメアリーさん:04/04/26 22:01
aikoのおやすみなさいのカヴァーで使ってるコード、分かる人いない?
めちゃ弾き語りやりたい。

844 :壁に耳あり、障子にメアリーさん:04/04/26 22:08
ゲッカヨでも読みなさい

845 :壁に耳あり、障子にメアリーさん:04/04/26 23:42
オクターブがいっこ下がってるからコードが原曲と変わってるよ・・・

846 :Tくん:04/04/27 01:28
ありがとうでした。シロートながらの意見ですが、ジャカジャ−ンのPEEちゃんパートは六弦ミュートではないのでしょうか?

847 :壁に耳あり、障子にメアリーさん:04/04/27 10:21
>>846
ですね。たぶん、鳴ってるのは1〜4弦あたりだったような。
確か、このスレのわりと始めの方にありましたよ。
1〜100あたりだったと思う。探してみて。他にも為になるレス多いから。

848 :壁に耳あり、障子にメアリーさん:04/04/27 11:24
ビューティフルピクチャーのあのドラムの音は
どんなスティックで叩いて出してるのかわかる人いませんか?
あれは加工したわけではなく実際に叩いて出したらしいんですが。
確かラジオで竹のスティックを使ったと言ってたような気がするんですが、
楽器屋で探してもそれらしいのがなくて。
自作スティックなのかな。

849 :壁に耳アリ、障子にメアリーさん:04/04/27 17:01
さわおスターの悲劇 コピーしてえええなああ。

850 :Tくん:04/04/27 23:15
ライドのイントロ以降はコピーできてますか?自分はミミコピができないので、聞いてばかりですみません。

851 :ボウス ◆VPQJ7RBkFU :04/04/27 23:45
>>850

>>33は見てもらえましたか?
当方がその>>33です。
では、このスレの原点に戻ってスレを進行しましょう。
【Ride on shooting star】(パワーコードのみ&sは省略)
4|----------------44444444------------------------776767----------
5|555555554444444422222222222222225555555577777777554545--998989--
6|3333333322222222--------000000003333333355555555--------776767--

今日はここまで。
では、オヤスミナサイzzz


852 :ななしやー:04/04/28 21:38
ライドのさびのコードだけなら
8分で区切ってます
-は同じコード
休は休符
G-----D-BA休D----
E-----A♯-B-------
G-----D-BA休D----
E-----A♯-B-------

明日ギターくるからこぴってみる。

853 :Tくん:04/04/29 00:02
ありがとうです。マスターします。

854 :壁に耳あり、障子にメアリーさん:04/04/29 21:18
test

855 :ぼるじょあ ◆yEbBEcuFOU :04/04/29 21:19
コードだけならとりあえずONE LIFEコピれそうだ。

856 :壁に耳あり、障子にメアリーさん:04/04/29 21:37
↑ウァァ!!こんな有名なコテがpillows知ってたとは・・・・・・
さては兄御田??

857 :ぼるじょあ ◆yEbBEcuFOU :04/04/30 00:51
このコテは共有コテですよー

858 :壁に耳あり、障子にメアリーさん:04/04/30 09:33
??????
そんなのあるの?てっきり山崎と同類かと思ったよ

859 :壁に耳あり、障子にメアリーさん:04/04/30 14:53
インスタントミュージックとか非常にイージー。


860 :壁に耳あり、障子にメアリーさん:04/05/01 03:03
でも全音下げな罠

861 :壁に耳あり、障子にメアリーさん:04/05/01 09:21
Tiny Boatを耳コピするのって大変ですか?( ̄□ ̄;

862 :壁に耳あり、障子にメアリーさん:04/05/01 10:10
>861 一番上

863 :壁に耳アリ、障子にメアリーさん:04/05/01 12:32
カーニバルのイントロ、小気味良いストロークができんん

864 :壁に耳あり、障子にメアリーさん:04/05/01 12:35
>>862
??
それは一番難しいってこと?確かに俺にとっては難しいな。
なぜなら音源がない。

865 :壁に耳あり、障子にメアリーさん:04/05/01 13:52
>863 やわらかいピックつかってみたら?

866 :863:04/05/02 13:54
柔らかいのねえ。参考にするよ!dクス!

867 :Tくん:04/05/02 16:04
おひさです。ライド、サビわかりませんか?

868 :壁に耳あり、障子にメアリーさん:04/05/02 20:40
思ったんだけどさ、ヤフチャットにピロウズコピ部屋立てたらボイス機能つかってギター流せるから良いんじゃ?

869 :壁に耳あり、障子にメアリーさん:04/05/03 01:18
それもいいけどさ、ラジオでピロがでるときとかまじ流してくれないかといつも思うよ。
ごめん自分勝手な意見だな。
はんせい_| ̄|○

870 :ぼるじょあ ◆yEbBEcuFOU :04/05/03 19:02
ライドのさびのコードだけなら
パワーコードで8分で区切ってます
-は同じコード
休は休符
G-----D-BA休D----
E-----A♯-B-------
G-----D-BA休D----
E-----A♯-B-------



871 :壁に耳あり、障子にメアリーさん:04/05/04 17:59
ライドンのサビ頭、Gの次はAに聴こえるのは漏れだけ?

872 :壁に耳あり、障子にメアリーさん :04/05/04 18:50
俺もAに聞える

873 :壁に耳あり、障子にメアリーさん:04/05/08 17:36
one life のイントロってガイシュツ?

874 :Tくん:04/05/09 00:29
ハイブリットレインボウ、DVDで指導していると聞いています。誰かコピできましたか?
教えて下さい。

875 :壁に耳あり、障子にメアリーさん:04/05/09 08:10
DVDみりゃ一発だろ

306 KB
■ このスレッドは過去ログ倉庫に格納されています

★スマホ版★ 掲示板に戻る 全部 前100 次100 最新50

read.cgi ver 05.04.00 2017/10/04 Walang Kapalit ★
FOX ★ DSO(Dynamic Shared Object)